Disturbed - Violence Fetish Chords & Tabs

 

Violence Fetish Chords & Tabs

Disturbed Chords & Tabs

Version: 5 Type: Tab 0 ratings
1 star 2 stars 3 stars 4 stars 5 stars
comments

Violence Fetish Tab

Band- Disturbed
Album- The Sickness
Song- Violence Fetish
Tuning- Drop D

Intro
|---------------13----12----|
|------------15----15----15-|
|---------------------------|
|-0----0--------------------|
|-0----0--------------------|
|-0----0--------------------|

|----13----12----16----13----12-------13----12----16--|
|-15----15----15----15----15----15-15----15----15-----|
|-----------------------------------------------------|
|-----------------------------------------------------|
|-----------------------------------------------------|
|-----------------------------------------------------|

|-----------------------------------|
|-----------------------------------|
|---8-------8-8*----8---------------|
|---7-------7-------7---------------|
|---6-------6-------6-----8-8*-8-8*-|
|-0----0-0-------0----0-0-----------|
Verse

|--------------------------------------|
|--------------------------------------|
|---8----------------8-----------------|
|---7----------------7-----------------|
|---6----------------6-----------------|
|-0---0---0--1-0---0----0---0--1-0-0-0-|
P.M.  .   .  . .   .    .   .  . . . . 
[ Tab from: http://www.guitartabs.cc/tabs/d/disturbed/violence_fetish_tab_ver_5.html ]
Fill 1
|-----------|
|-----------|
|-----------|
|-----------|
|-5----(5)--|
|-----------|

Pre- Chorus
|----0----0----0----0----0----0----0----0----0----0----0----0-|
|-------------------------------------------------------------|
|-------------------------------------------------------------|
|-------------------------------------------------------------|
|----------------1----0----0--------------2----1----0----0----|
|-0----2----2-------------------3----2------------------------|

Chorus
|-----------|
|-----------|
|-----------|
|-0---------|
|-0---------|
|-0----0*---|

Bridge
|-------------------|----------------------|
|-------------------|----------------------|
|-------------x2----|----------x2----------|
|-------------------|-----7----------------|
|-----5---6---7---8-|-----5---1---2---3----|
|-0-0---0---0---0---|-0-0---0-1-0-2-0-3----|
P.M..

Fill 2
|----0----0------------|
|----------------------|
|------------0*-0*-0*--|
|----------------------|
|-1----0---------------|
|----------------------|

*= Harmonic

That's it. I'm going to start posting songs off of Believe pretty soon so check it out when I do!!!!!
Comments