Disturbed - Violence Fetish Chords & Tabs

 

Violence Fetish Chords & Tabs

Disturbed Chords & Tabs

Version: 1 Type: Tab 0 ratings
1 star 2 stars 3 stars 4 stars 5 stars
comments

Violence Fetish Tab

   
Song: "Violence Fetish"
Artist: Disturbed
Tabbed By: Dysfunction

Tuning: 1/2 Step Down, Drop D
	 - harmonics
	^ - bend 1/2 step

INTRO:
|---|
|---|
|---|
|-0-|
|-0-|
|-0-|

INTRO B:
|----------------16-|
|-15-18-15-17-15----|
|-------------------|
|-------------------|
|-------------------|
|-------------------|

CHORUS: Dan uses some pedal so just bend string
|---------------------------------------------------------------|
|---------------------17^-17-17^---------------------17^-17-17^-|
|---------------------------------------------------------------|
|0-1-0-0-1-----0-1-0-0----------0-1-0-0-1-----0-1-0-0-----------|
|0-1-0-0-1-----0-1-0-0----------0-1-0-0-1-----0-1-0-0-----------|
|0-1-0-0-1-----0-1-0-0----------0-1-0-0-1-----0-1-0-0-----------|
[ Tab from: http://www.guitartabs.cc/tabs/d/disturbed/violence_fetish_tab.html ]
VERSE:
|--------------------------------------|
|--------------------------------------|
|--------------------------------------|
|-0----0-13-00-0-01-0--0-13-00-0-01000-|
|-0----0-13-00-0-01-0--0-13-00-0-01000-|
|-0----0-13-00-0-01-0--0-13-00-0-01000-|
PM     .    .. . .  .  .    .. . .....

BRIDGE:
|---0---0---0---0---0---0-|
|-------------------------|
|-------------------------|
|-------------------------|
|-3---2---2---8---7---7---|
|-3---2---2---8---7---7---|

INTERLUDE:
|-----------------|
|-----------------|
|------7---8-9-10-|
|------7---8-9-10-|
|-0-0--5-0-6-7--8-|
|-0-0----0--------|
PM. .    .

INTERLUDE 2:
|--------------------|
|--------------------|
|--------------------|
|-0-0--12-0-13-14-15-|
|-0-0--12-0-13-14-15-|
|-0-0--12-0-13-14-15-|

OUTRO:
|---------------------------|
|---------------------------|
|---------------------------|
|-0-1-0-0-1-0--0-1-0-0-0000-|
|-0-1-0-0-1-0--0-1-0-0-0000-|
|-0-1-0-0-1-0--0-1-0-0-0000-|
PM                     ....

Comments