Disturbed - Stupify Chords & Tabs

 

Stupify Chords & Tabs

Disturbed Chords & Tabs

Version: 1 Type: Tab 0 ratings
1 star 2 stars 3 stars 4 stars 5 stars
comments

Stupify Tab

Disturbed - Stupify
Tune all strings down a half step - then drop low Eb to Db
(dropped D tuning)

Dnnythms - http://www.geocities.com/allkimsmith

Intro/Chorus:
Eb |----------------------------------------------------|
Bb |----------------------------------------------------|
Gb |----------------------------------------------------|
Db |--8--0-1-0--0-1-0-3-1-1-3---8--0-1-0--0-3-0---------|
Ab |--8--0-1-0--0-1-0-3-1-1-3---8--0-1-0--0-3-0-3h6-0-0-|
Db |--8--0-1-0--0-1-0-3-1-1-3---8--0-1-0--0-3-0-----0-0-|
                 (palm mute)               (palm mute)
[ Tab from: http://www.guitartabs.cc/tabs/d/disturbed/stupify_tab.html ]
Verse:
Eb |-----------------6-8---------------------5----------|
Bb |-----------6-6-6-----------------------4------------|
Gb |---------------------------------2-2-2--------------|
Db |--0--0--0---------------0--0--0---------------------|
Ab |--0--0--0---------------0--0--0---------------------|
Db |--0--0--0---------------0--0--0---------------------|
    (palm mute)          (palm mute)

Bridge:
Eb |---------------------------------------------|
Bb |---------------------------------------------|
Gb |---------------------------------------------|
Db |--0--3--0--3--0--1---------------------------|
Ab |--0--3--0--3--0--1---------------------------|
Db |--0--3--0--3--0--1---------------------------|
Comments