Disturbed - Stupify Chords & Tabs

 

Stupify Chords & Tabs

Disturbed Chords & Tabs

Version: 2 Type: Bass Tab 0 ratings
1 star 2 stars 3 stars 4 stars 5 stars
comments

Stupify Bass Tab

   
Band: Disturbed
Song: Stupify
Tabbed by: Dave "DeMoN" Theriaque
Tuning: Db,Ab,Db,Gb

Intro
Gb|-------------------------------||-------------------------------||
Db|-------------------------------||------------------------1-0----||
Ab|--1----------------------------||--1-------------------3-----3--||
Db|----0---1-0-(0)-1---0-3-1-0-3--||----0---1-0-(0)-1-3-1----------||

 ||-------------------------------||-------------------------------||
 ||-------------------------------||----------------1---1----------||
 ||--1----------------------------||--1---------------3---3--------||
 ||----0---1-0-(0)-0-1-1-3-1-0-3--||----0---1-0-(0)---------3-3-3--||

                                   Verse 8x
 ||-----------------------------||---------------------||  ||-------|| this is the last note on
 ||-----------------------------||---------------------||  ||-------|| the last time you play
 ||--1--------------------------||---------------------||  ||-------|| the verse, then go 
 ||----0---1-0-(0)-1-1-1-0-0-1--||0---0-(0)--0-(0)--0--||  ||--12\--|| straight into the chorus

Chorus, just play the intro
 ||-------------------------------||------------------------------||
 ||-------------------------------||------------------------------||
 ||-------------------------------||------------------------------||
 ||-------------------------------||------------------------------||

the play the Verse

Interlude
 ||--------------------|| ||-----------7-(7)----|| 
 ||----7-(7)--6-(6)-7--|| ||----7-(7)--6-(6)-7--|| 
 ||--5-----------------|| ||--5-----------------|| 
 ||--------------------|| ||--------------------|| 

 ||--------------------|| ||-------------------5------|| ||--------------------------------||
 ||----7-(7)--6-(6)-7--|| ||----7-(7)--6-(6)-7-----7--|| ||----7-(7)-----------------------||
 ||--5-----------------|| ||--5-----------------------|| ||--5-----------------------------||
 ||--------------------|| ||--------------------------|| ||-----------0-(0)--0----0--0--10\||
[ Tab from: http://www.guitartabs.cc/tabs/d/disturbed/stupify_btab_ver_2.html ]
Bridge
 ||--------------------------------------------------------------||
 ||--------------------------------------------------------------||
 ||--------------------------------------------------------------||
 ||--0-3-(3)--0-(0)--3---0--1-1--0---3-(3)--0-(0)--3---1--4/13\--||

          play this                          then this                              
 ||--------------------------------|| ||----------------------------------||
 ||--------------------------------|| ||----------------------------------||     2x
 ||--------------------------------|| ||----------------------------------||     
 ||--8-7---0-0-(0)-1-1-1--0-0-0-0--|| ||--1-0-(0)-0-0-(0)-1-1-1--0-0-0-0--||

 ||--------------------------------|| ||--------------------------------------------||
 ||--------------------------------|| ||--------------------------------------------||
 ||--------------------------------|| ||--------------------------------------------|| 
 ||--8-7---0-0-(0)-1-1-1--0-0-0-0--|| ||--1---0-0----0-0---1----0-0-0-0----1---0-0--||

Outro
 ||--------------------------------------|| ||---------------------------------||
 ||-------------------------------1-0----|| ||--------------------------1-0----|| 
 ||-----------------------------3-----3--|| ||------------------------3-----3--||
 ||--1-0----1-0----1-0----1-3-1----------|| ||--1-0-(0)-1-0-(0)-1-3-1----------||

 ||--------------------------------------|| ||-------------------------------------||
 ||--------------------------------------|| ||-------------------------------------|| 
 ||--------------------------------------|| ||-------------------------------------||
 ||--1-0----1-0----1-0----1-3-0-1-3-1-2--|| ||--1-0----1-0---1-0----1-3-0-1-3-0-1--||

 ||--------------------------------------|| ||-------------------------------------||
 ||--------------------------------------|| ||-------------------------------------|| 
 ||--------------------------------------|| ||-------------------------------------||
 ||--1-0----1-0----1-0----1-3-0-1-0-0-0--|| ||--1-0----1-0---1-0----1-3-0-1-3-1-2--||
 
 ||--------------------------------------|| ||--------------------||
 ||-------rest this whole measure--------|| ||--------------------||
 ||--------------------------------------|| ||--------------------||
 ||--------------------------------------|| ||--1-0--------1-0----||


That's the whole song. Listen to song for order and timing.
Peace out.
"DeMoN"

 
Comments