Disturbed - Stupify Chords & Tabs

 

Stupify Chords & Tabs

Disturbed Chords & Tabs

Version: 1 Type: Bass Tab 0 ratings
1 star 2 stars 3 stars 4 stars 5 stars
comments

Stupify Bass Tab

   
"Stupify" by Disturbed

Tab by Michael Evans 
tepes22b@hotmail.com

A 5-string bass is recommended for this song, but not necessary.

Tuning is as follows:

Tune all strings down a minor third (three steps)

1 = E 
2 = B
3 = F #
4 = C #

(The fifth string would be G#)

Chorus/Intro
1 ----------------------------------
2 ----------------------------------
3 -3------------------5h7-----------
4 ----0-0-0-0----0-0-------0-0------

Verse
(the periods mean play the notes short with a heavy attack)
1 ----------------------------------
2 ----------------------------------
3 ----------------------------------
4 -0---0---0---0--------------------
   .   .   .   .

Fill 1, before second verse
1 ----------------------------------
2 ----------------------------------
3 ----------------------------------
4 -0---0---0---0-----------7\-------
   .   .   .   .

Far Eastern part
(3X)
1 ----------------------------------
2 -----9--8---9---------------------
3 -7--------------------------------
4 ----------------------------------

(1X)
1 ---------------------7------------
2 -----9----8----9---------9--------
3 -7--------------------------------
4 ----------------------------------

Interlude
(2X)
1 ------------------
2 ------------------
3 ------------------
4 0-----------------

(1X)
1 --------------------------------------
2 --------------------------------------
3 --------------------------------------
4 -0----3-----0------3-------0--1-------

Heavy Chorus without lyrics
1 ------------------------------------------------
2 ------------------------------------------------
3 -3----------------------------------------------
4 ----0-0-0-0----0-0-0-0--1----0-0-0-0------------

Last fill before Heavy Outro
1 ----------------------------
2 ----------------------------
3 ----------------------------
4 -1-0-0---0-1-0-0-0----------

Heavy Outro
(4X)
1 ------------------------------------------------------------------
2 ------------------------------------------------------------------
3 ------------------------------------------------------------------
4 -0-0---0-0---0-0---0-0---0-0-0-0---1-----0-0-0------0-0-----------
   . .   . .   . .   . .

(1X)
1 ----------------------------------
2 ----------------------------------
3 ----------------------------------
4 -0-0---0-0---0-0---0-0------------

[ Tab from: http://www.guitartabs.cc/tabs/d/disturbed/stupify_btab.html ]
This is a tab for "Stupify" by "Disturbed." This is arranged for a 5 
string bass in standard tuning (B E A D G). I basically just transposed 
Michael Evan's de-tuned 4 string tab. Also, where Michael says the bass 
should be de-tuned three steps, I believe that he meant 3 half-steps. 
At least that's what the notes he wrote are. He did get the interval 
(minor third) correct though.

Enjoy
Ari D.
ILearnedFromLesbians@knac.com

Chorus/Intro
G -----------------------------------
D -----------------------------------
A -0------------------3h5------------
E -----------------------------------
B ----2-2-2-2----2-2-------2-2-------

Verse (Colon (:) = Staccato)
G -----------------------------------
D -----------------------------------
A -----------------------------------
E -----------------------------------
B -2:---2:---2:---2:-----------------

Fill 1 (before second verse)
G -----------------------------------
D -----------------------------------
A -----------------------------------
E -----------------------------------
B -2:---2:---2:---2:-----------9\----

Odd Eastern-ish sounding part
(3X)
G -----------------------------------
D -----6--5---6----------------------
A -4---------------------------------
E -----------------------------------
B -----------------------------------

(1X)
G ------------------4----------------
D -----6--5---6---------6------------
A -4---------------------------------
E -----------------------------------
B -----------------------------------

Interlude
(2X, let ring)
G -----------------------------------
D -----------------------------------
A -----------------------------------
E -----------------------------------
B -2---------------------------------

(1X)
G -----------------------------------
D -----------------------------------
A -----------------------------------
E ------0------------0---------------
B –2----------2--------------2--3----

Heavy Chorus w/out lyrics
G ------------------------------------
D ------------------------------------
A -0----------------------------------
E ------------------------------------
B ----2-2-2-2----2-2-2-2-3----2-2-2-2-

Fill 2(Before Heavy Outro)
G ------------------------------------
D ------------------------------------
A ------------------------------------
E ------------------------------------
B -3-2-2---2-3-2-2-2------------------

Heavy Outro
(4X)
G -----------------------------------------------------------------
D -----------------------------------------------------------------
A -----------------------------------------------------------------
E -----------------------------------------------------------------
B -2:-2:---2:-2:---2:-2:---2:-2:---2-2-2-2---3-----2-2-2-----2:-2:-

(1X)
G ------------------------------------
D ------------------------------------
A ------------------------------------
E ------------------------------------
B -2-2---2-2---2-2---2----------------

Comments