Disturbed - Stricken Chords & Tabs

 

Stricken Chords & Tabs

Disturbed Chords & Tabs

Version: 6 Type: Tab 0 ratings
1 star 2 stars 3 stars 4 stars 5 stars
comments

Stricken Tab

Disturbed - Stricken
Tuning - CGCFAD

D||-------------------------------|------------------------------|
A||-------------------------------|------------------------------|
F||-------------------------------|------------------------------|
C||----10/7-----------------------|---10/7-----------------------|
G||--0-8/-5--8/7--2/3--3-5--3-6-0-|---8/-5--8/7--2/3--3-5--3-3-0-|
C||--0-------8/7--2/3--3-5--3-6-0-|---------8/7--2/3--3-5--3-3-0-|

------------------------------|-----------------------------------|
------------------------------|-----------------------------------|
------------------------------|-----------------9-9-9-9-10-10-9---|
---10/7---------------------3-|---3-3-3-5-5-3-x-7-7-7-7-7--7--7---|
---8/-5--8/7--2/3--3-5--3-6-3-|---3-3-3-3-3-3-x-7-7-7-7-7--7--7-0-|
---------8/7--2/3--3-5--3-6-3-|---3-3-3-3-3-3-x-7-7-7-7-7--7--7-0-|

------------------------------|------------------------------|
------------------------------|------------------------------|
------------------------------|------------------------------|
---10/7-----------------------|---10/7-----------------------|
---8/-5--8/7--2/3--3-5--3-6-0-|---8/-5--8/7--2/3--3-5--3-3-0-|
---------8/7--2/3--3-5--3-6-0-|---------8/7--2/3--3-5--3-3-0-|

------------------------------|-----------------------------------|
------------------------------|-----------------------------------|
------------------------------|-----------------9-9-9-9-10-10-9---|
---10/7---------------------3-|---3-3-3-5-5-3-x-7-7-7-7-7--7--7---|
---8/-5--8/7--2/3--3-5--3-6-3-|---3-3-3-3-3-3-x-7-7-7-7-7--7--7-0-|
---------8/7--2/3--3-5--3-6-3-|---3-3-3-3-3-3-x-7-7-7-7-7--7--7-0-|

-----------------------------|------------------------------|
-----------------------------|------------------------------|
-----------------------------|------------------------------|
-----------------------------|------------------------------|
---0-0--0-0--0-0--0-0--3-6-0-|---0-0--0-0--0--0-3-6-0-3-3-0-|
---0-0--0-0--0-0--0-0--3-6-0-|---0-0--0-0--0--0-3-6-0-3-3-0-|

-----------------------------|-----------------------------------|
-----------------------------|-----------------------------------|
-----------------------------|-----------------9-9-9-9-10-10-9---|
---------------------------3-|---3-3-3-5-5-3-x-7-7-7-7-7--7--7---|
---0-0--0-0--0-0--0-0--3-6-3-|---3-3-3-3-3-3-x-7-7-7-7-7--7--7-0-|
---0-0--0-0--0-0--0-0--3-6-3-|---3-3-3-3-3-3-x-7-7-7-7-7--7--7-0-|

-----------------------------|------------------------------|
-----------------------------|------------------------------|
-----------------------------|------------------------------|
-----------------------------|------------------------------|
---0-0--0-0--0-0--0-0--3-6-0-|---0-0--0-0--0--0-3-6-0-3-3-0-|
---0-0--0-0--0-0--0-0--3-6-0-|---0-0--0-0--0--0-3-6-0-3-3-0-|

-----------------------------|----------------------------------|
-----------------------------|----------------------------------|
-----------------------------|-----------------9-9-9-9-10-10-9--|
---------------------------3-|---3-3-3-5-5-3-x-7-7-7-7-7--7--7--|
---0-0--0-0--0-0--0-0--3-6-3-|---3-3-3-3-3-3-x-7-7-7-7-7--7--7--|
---0-0--0-0--0-0--0-0--3-6-3-|---3-3-3-3-3-3-x-7-7-7-7-7--7--7--|

-----------------------------|--------------------------------|
-----------------------------|--------------------------------|
-----------------------------|--------------------------------|
--0---0-10--3---3-3-3-2-2-1--|--0---0-------------------------|
--0---0-8---1----------------|--0---0-5--8---8-8-8-8-10-10-10-|
--0---0----------------------|--0---0-5--8---8-8-8-8-10-10-10-|

-----------------------------|----------------------------|
-----------------------------|----------------------------|
-----------------------------|----------------------------|
--0---0-10--3---3-3-3-2-2----|----------------------------|
--0---0-8---1----------------|--3---3---3--5-5-5--x-x-x-x-|
--0---0-------------------8/-|--3---3---3--5-5-5--x-x-x-x-|

-----------------------------|--------------------------------|
-----------------------------|--------------------------------|
-----------------------------|--------------------------------|
--0---0-10--3---3-3-3-2-2-1--|--0---0-------------------------|
--0---0-8---1----------------|--0---0-5--8---8-8-8-8-10-10-10-|
--0---0----------------------|--0---0-5--8---8-8-8-8-10-10-10-|

----------------------------|----------------------------|
----------------------------|----------------------------|
----------------------------|----------------------------|
----0--10--3---3-3-3-2-2----|----------------------------|
----0--8---1----------------|--3---3---3--5-5-5--1-1-1-1-|
----0--------------------8/-|--3---3---3--5-5-5--1-1-1-1-|

------------------------------|----------------------------|
------------------------------|----------------------------|
------------------------------|----------------------------|
------------------------------|----------------------------|
----8/5-----------------------|---8/5----------------------|
--0------8/7--2/3--3-5--3-6-0-|--------8/7--2/3--3-5-3b--0-|

-----------------------------|-----------------------------------|
-----------------------------|-----------------------------------|
-----------------------------|-----------------9-9-9-9-10-10-9---|
---------------------------3-|---3-3-3-5-5-3-x-7-7-7-7-7--7--7---|
---8/5---------------------3-|---3-3-3-3-3-3-x-7-7-7-7-7--7--7-0-|
--------8/7--2/3--3-5--3-6-3-|---3-3-3-3-3-3-x-7-7-7-7-7--7--7-0-|

-----------------------------|------------------------------|
-----------------------------|------------------------------|
-----------------------------|------------------------------|
-----------------------------|------------------------------|
---0-0--0-0--0-0--0-0--3-6-0-|---0-0--0-0--0--0-3-6-0-3-3-0-|
---0-0--0-0--0-0--0-0--3-6-0-|---0-0--0-0--0--0-3-6-0-3-3-0-|

-----------------------------|-----------------------------------|
-----------------------------|-----------------------------------|
-----------------------------|-----------------9-9-9-9-10-10-9---|
---------------------------3-|---3-3-3-5-5-3-x-7-7-7-7-7--7--7---|
---0-0--0-0--0-0--0-0--3-6-3-|---3-3-3-3-3-3-x-7-7-7-7-7--7--7---|
---0-0--0-0--0-0--0-0--3-6-3-|---3-3-3-3-3-3-x-7-7-7-7-7--7--7-0-|

-----------------------------|------------------------------|
-----------------------------|------------------------------|
-----------------------------|------------------------------|
-----------------------------|------------------------------|
-----------------------------|------------------------------|
---0-0--0-0--0-0--0-0--3-6-0-|---0-0--0-0--0--0-3-6-0-3-3-0-|

-----------------------------|----------------------------------|
-----------------------------|----------------------------------|
-----------------------------|-----------------9-9-9-9-10-10-9--|
---------------------------3-|---3-3-3-5-5-3-x-7-7-7-7-7--7--7--|
---------------------------3-|---3-3-3-3-3-3-x-7-7-7-7-7--7--7--|
---0-0--0-0--0-0--0-0--3-6-3-|---3-3-3-3-3-3-x-7-7-7-7-7--7--7--|

-----------------------------|--------------------------------|
-----------------------------|--------------------------------|
-----------------------------|--------------------------------|
--0---0-10--3---3-3-3-2-2-1--|--0---0-------------------------|
--0---0-8---1----------------|--0---0-5--8---8-8-8-8-10-10-10-|
--0---0----------------------|--0---0-5--8---8-8-8-8-10-10-10-|

-----------------------------|----------------------------|
-----------------------------|----------------------------|
-----------------------------|----------------------------|
--0---0-10--3---3-3-3-2-2----|----------------------------|
--0---0-8---1----------------|--3---3---3--5-5-5--x-x-x-x-|
--0---0-------------------8/-|--3---3---3--5-5-5--x-x-x-x-|

-----------------------------|--------------------------------|
-----------------------------|--------------------------------|
-----------------------------|--------------------------------|
--0---0-10--3---3-3-3-2-2-1--|--0---0-------------------------|
--0---0-8---1----------------|--0---0-5--8---8-8-8-8-10-10-10-|
--0---0----------------------|--0---0-5--8---8-8-8-8-10-10-10-|

----------------------------|----------------------------|
----------------------------|----------------------------|
----------------------------|----------------------------|
----0--10--3---3-3-3-2-2----|----------------------------|
----0--8---1----------------|--3---3---3--5-5-5--x-x-x-x-|
----0--------------------8/-|--3---3---3--5-5-5--x-x-x-x-|

--------x-x-------x-x-----x-x-|--------x-x-------x-x-----x-x-|
--------x-x-------x-x-----x-x-|--------x-x-------x-x-----x-x-|
--------x-x-------x-x-----x-x-|--------x-x-------x-x-----x-x-|
------------------------------|------------------------------|
--0---0-----0---0-----0-0-----|--0---0-----0---0-----0-0-----|
--0---0-----0---0-----0-0-----|--0---0-----0---0-----0-0-----|

--------x-x-------x-x-----x-x-|--------x-x-------x-x-----x-x-|
--------x-x-------x-x-----x-x-|--------x-x-------x-x-----x-x-|
--------x-x-------x-x-----x-x-|--------x-x-------x-x-----x-x-|
------------------------------|------------------------------|
--0---0-----0---0-----0-0-----|--0---0-----0---0-----0-0-----|
--0---0-----0---0-----0-0-----|--0---0-----0---0-----0-0-----|

------------------|-------------------------|--------x-x-------x-x-----x---|
------------------|-------------------------|--------x-x-------x-x-----x-x-|
------------------|-------------------------|--------x-x-------x-x-----x-x-|
------------------|-------------------------|------------------------------|
8------7----------|--8----8---10---8--7--8--|--0---0-----0---0-----0-0-----|
8------8----------|--8----8---8----8--8--8--|--0---0-----0---0-----0-0-----|
[ Tab from: http://www.guitartabs.cc/tabs/d/disturbed/stricken_tab_ver_6.html ]
--------x-x-------x-x-----x-x-|--------------------|-----------------------|
--------x-x-------x-x-----x-x-|--------------------|-----------------------|
--------x-x-------x-x-----x-x-|--------------------|-----------------------|
------------------------------|--------------------|-----------------------|
--0---0-----0---0-----0-0-----|--8------7----------|--10------7----8----7--|
--0---0-----0---0-----0-0-----|--8------8----------|--8-------8----8----8--|

--------x-x-------x-x-----x-x-|--------x-x-------x-x-----x-x-|
--------x-x-------x-x-----x-x-|--------x-x-------x-x-----x-x-|
--------x-x-------x-x-----x-x-|--------x-x-------x-x-----x-x-|
------------------------------|------------------------------|
--0---0-----0---0-----0-0-----|--0---0-----0---0-----0-0-----|
--0---0-----0---0-----0-0-----|--0---0-----0---0-----0-0-----|

--------------------|-------------------------|--------------------------|
--------------------|-------------------------|--------------------------|
--------------------|-------------------------|--------------------------|
--------------------|-------------------------|--------------------------|
--8------7----------|--8----8---10---8--7--8--|--7--7--7--7--7--7--7--7--|
--8------8----------|--8----8---8----8--8--8--|--7--7--7--7--7--7--7--7--|

--------------------------|-----------------------------|
--------------------------|-----------------------------|
--------------------------|-----------------------------|
-----------------------5--|-----------------------------|
--5--5--5--3--3--2--2--3--|-----------------------------|
--5--5--5--3--3--2--2-----|---0-0--0-0--0-0--0-0--0-0-0-|

------------------------------|------------------------------|
------------------------------|------------------------------|
------------------------------|---------------------------10-|
------------------------------|------------------------------|
------------------------------|---------------------------8--|
---0-0--0-0--0--0-0-0-0-0-0-0-|---0-0--0-0--0-0--0-0--3-6----|

----------------------------------------|-----------------------------|
----------------------------------------|-----------------------------|
---10-10/12-12/14-14--9-9-9-9-10-10-9---|-----------------------------|
----------------------------------------|-----------------------------|
---8--8/-10-10/12-12--7-7-7-7-8--8--7---|-----------------------------|
--------------------------------------0-|---0-0--0-0--0-0--0-0--3-6-0-|

------------------------------|-----------------------------|
------------------------------|-----------------------------|
------------------------------|-----------------------------|
------------------------------|---------------------------3-|
------------------------------|---------------------------3-|
---0-0--0-0--0--0-3-6-0-3-3-0-|---0-0--0-0--0-0--0-0--3-6-3-|

----------------------------------|---------------------------|
----------------------------------|---------------------------|
-----------------9-9-9-9-10-10-9--|---------------------------|
---3-3-3-5-5-3-x-7-7-7-7-7--7--7--|--0---0-0--8---8-8--8-8-8--|
---3-3-3-3-3-3-x-7-7-7-7-7--7--7--|--0---0-0--8---8-8--8-8-8--|
---3-3-3-3-3-3-x-7-7-7-7-7--7--7--|--0---0-0--8---8-8--8-8-8--|

---------------------------|---------------------------|
---------------------------|---------------------------|
---------------------------|---------------------------|
--0---0-0--8---8-8--8-8-8--|--0---0-0--8---8-8--8-8-8--|
--0---0-0--8---8-8--8-8-8--|--0---0-0--8---8-8--8-8-8--|
--0---0-0--8---8-8--8-8-8--|--0---0-0--8---8-8--8-8-8--|

----------------------------|---------------------------|
----------------------------|---------------------------|
----------------------------|---------------------------|
----------------------------|--0---0-0--8---8-8--8-8-8--|
--3---3---3--5-5-5--x-x-x-x-|--0---0-0--8---8-8--8-8-8--|
--3---3---3--5-5-5--x-x-x-x-|--0---0-0--8---8-8--8-8-8--|

-------------------------|---------------------------|---------------------|
-------------------------|---------------------------|---------------------|
-------------------------|---------------------------|---------------------|
0---0-0--8---8-8--8-8-8--|--0---0-0--8---8-8--8-8-8--|---------------------|
0---0-0--8---8-8--8-8-8--|--0---0-0--8---8-8--8-8-8--|--5------5------5----|
0---0-0--8---8-8--8-8-8--|--0---0-0--8---8-8--8-8-8--|--5------5------5----|

---------------------|---------------------|---------------------|
---------------------|---------------------|---------------------|
---------------------|---------------------|---------------------|
---------------------|---------------------|---------------------|
--4------4------4----|--5------5------5----|--4------4------4----|
--5------5------5----|--5------5------5----|--5------5------5----|

--------------------------------|-------------------------------|
--------------------------------|-------------------------------|
--------------------------------|-------------------------------|
--------------------------------|-------------------------------|
--0-3-0--8-7--1-3-0-0-0-0-3-5-0-|---3-0--8-7--1-3-0-0-0-0-0-0-0-|
--0-3-0--8-7--1-3-0-0-0-0-3-5-0-|---3-0--8-7--1-3-0-0-0-0-0-0-0-|

-------------------------------|-------------------------------|
-------------------------------|-------------------------------|
-------------------------------|-------------------------------|
-------------------------------|-------------------------------|
---3-0--8-7--1-3-0-0-0-0-3-5-0-|---3-0--8-7--1-3-0-0-0-0-0-0-0-|
---3-0--8-7--1-3-0-0-0-0-3-5-0-|---3-0--8-7--1-3-0-0-0-0-0-0-0-|

-------------------------------|-------------------------------|
-------------------------------|-------------------------------|
-------------------------------|-------------------------------|
-------------------------------|-------------------------------|
---3-0--8-7--1-3-0-0-0-0-3-5-0-|---3-0--8-7--1-3-0-0-0-0-0-0-0-|
---3-0--8-7--1-3-0-0-0-0-3-5-0-|---3-0--8-7--1-3-0-0-0-0-0-0-0-|

-------------------------------|-------------------------------||
-------------------------------|-------------------------------||
-------------------------------|-------------------------------||
-------------------------------|-------------------------------||
---3-0--8-7--1-3-0-0-0-0-3-5-0-|---3-0--8-7--1-3-0-0-0-0-0-0-0-||
---3-0--8-7--1-3-0-0-0-0-3-5-0-|---3-0--8-7--1-3-0-0-0-0-0-0-0-||


Solo:

------|------|------|------|-------------------------------|
------|------|------|------|--13b-----13~------------13-17-|
------|------|------|------|-------------------12/14-------|
------|------|------|------|-------------------------------|
------|------|------|------|-------------------------------|
------|------|------|------|-------------------------------|

----------------------------------------|
--17b---17-15---------------------------|
--------------14--------10-12-12r-10----|
-------------------9/12--------------12-|
----------------------------------------|
----------------------------------------|

--------------------------------------------|---------------------------12h|
--10~-------------10~----------10~----------|--12~--12r--12r--12r--10~-----|
--10~-------------10~----------10~----------|--12~--12r--12r--12r--10~-----|
------12-10-12-12-----12-10-12-----12-10-12-|------------------------------|
--------------------------------------------|------------------------------|
--------------------------------------------|------------------------------|

--13p12--------------15b--15p13-15/17-----|--20b--20~--17~--18-17--------|
--------13--------13------------------15~-|----------------------18------|
-----------12~-12-------------------------|------------------------17-19b|
------------------------------------------|------------------------------|
------------------------------------------|------------------------------|
------------------------------------------|------------------------------|

------------------------------------------|
------------------------------------------|
----19b19b19b19b19b19b19b19b19b19b19b19r--|
------------------------------------------|
------------------------------------------|
------------------------------------------|

-------------------------------------|
-------------------------13-------10-|
--17h19~----7/10-12-12b-------12r----|
-------------------------------------|
-------------------------------------|
-------------------------------------|

13p10-12p10-------13p10-12p10-------13p10-12p10-------13p10-12p10-----13p10-|
------------13p10-------------13p10-------------13p10-------------13p10-----|
----------------------------------------------------------------------------|
----------------------------------------------------------------------------|
----------------------------------------------------------------------------|
----------------------------------------------------------------------------|

15p10-13p10-------15p10-13p10-------15p10-13p10-------15p10-13p10-----15p10-|
-----------13p10-------------13p10-------------13p10-------------13p10------|
----------------------------------------------------------------------------|
----------------------------------------------------------------------------|
----------------------------------------------------------------------------|
----------------------------------------------------------------------------|

-------------------------------------------|
--10-------10-------10-------10------------|
-----10-12----10-12----10-12----------9r---|
--------------------------------10-12------|
-------------------------------------------|
-------------------------------------------|

----------------------------------------------------------------------------|
----------------------------------------------------------------------------|
17b-14-15-14-12-14-13-12----12-13-12----12-14-15-14-12----12-14-15-14-12----|
-------------------------15----------15----------------15----------------14-|15
----------------------------------------------------------------------------|
----------------------------------------------------------------------------|

------------------|---|---|---|---|---|---|---|---|---|---|---|---|---|---|
------------------|---|---|---|---|---|---|---|---|---|---|---|---|---|---|
------------------|---|---|---|---|---|---|---|---|---|---|---|---|---|---|
12~---------------|---|---|---|---|---|---|---|---|---|---|---|---|---|---|
------------------|---|---|---|---|---|---|---|---|---|---|---|---|---|---|
------------------|---|---|---|---|---|---|---|---|---|---|---|---|---|---|
Comments