Disturbed - Stone Cold Chords & Tabs

 

Stone Cold Chords & Tabs

Disturbed Chords & Tabs

Version: 1 Type: Tab 0 ratings
1 star 2 stars 3 stars 4 stars 5 stars
comments

Stone Cold Tab

THE SECRET TO THIS SONG, IS THE TUNING. THE TUNING IS DOWN HALF A STEP, 
AND THERE ARE TWO GUITARS. THE FIRST GUITAR IS TUNED DOWN, AND THE SECOND 
GUITAR IS NORMALLY TUNED. GUITAR ONE, DOES THIS, WITH THE DISTORTION ON, 
AROUND MID-WAY, ONE MORE IMPORTANT THING...MAKE SURE THE TREBLE IS DOWN 
ABOUT HALF-WAY TOO!!
[ Tab from: http://www.guitartabs.cc/tabs/d/disturbed/stone_cold_tab.html ]
Eb------------1-------      
Ab--2--2---2--3---2--2   
Db--2--2---2--3---2--2   
Gb--------------------     
Bb--------------------
Eb--------------------

THEN GUITAR TWO COMES
IN WITH THE FOLLOWING, 
ABOUT 6 OR 7 TIMES 
AFTER GUITAR ONE PLAYS
THIS, WITH NO HIGH E STRING! 
E--0--0--0--1
A--2--2--2--3
D--2--2--2--3
G--1--1--1--2
B--0--0--0--1

THATS IT! HAVE FUN!
Comments