Disturbed - Sons Of A Plunder Chords & Tabs

 

Sons Of A Plunder Chords & Tabs

Disturbed Chords & Tabs

Version: 1 Type: Tab 0 ratings
1 star 2 stars 3 stars 4 stars 5 stars
comments

Sons Of A Plunder Tab

   
Band- Disturbed
Song- Son Of A Plunder
Album- Ten Thousand Fists
Tuning- C G C F A D

Intro
Guitar 1
|-----------------------------------------------------------------------|
|-----------------------------------------------------------------------|2x
|-----------------------------------------------------------------------|
|-----------------------------------------------------------------------|
|-----------------------------------------------------------------------|
|--3p0-0-5p0-0-3p0-0-3p0-0-5-0-3-5-3p0-0-5p0-0-3p0-0-3p0-0-6-5-3-5------|

Verse
Guitar 1
|-----------------------------------------------------------------------|
|-----------------------------------------------------------------------|
|-----------------------------------------------------------------------|4x
|-----------------------------------------------------------------------|
|-----------------------------------------------------------------------|
|--3p0-0-5p0-0-3p0-0-3p0-0-5-0-3-5-3p0-0-5p0-0-3p0-0-3p0-0-6-5-3-5------|
pm . . . . . . . . . . . . . . . . . . . . . . . . . . . . . . . .

Pre-Chorus
|--------------------------------------------|
|--------------------------------------------|
|--------------------------------------------|
|--0--6--0--3--0--6--0--6--3--5--3--6--5--3--|
|--0--6--0--3--0--6--0--6--3--5--3--6--5--3--|
|--0--6--0--3--0--6--0--6--3--5--3--6--5--3--|


|--------------------------------------------|
|--------------------------------------------|
|--------------------------------------------|
|-------6--0--3--0--6--0--6--3--5--3--6--0---|
|-0-0-0-6--0--3--0--6--0--6--3--5--3--6--0---|
|-0-0-0-6--0--3--0--6--0--6--3--5--3--6--0---|
pm. . .

Chorus
Guitar 1
   16x     16x      16x       16x
|--------------------------------------------|
|--------------------------------------------|
|--------------------------------------------|
|--12-------7--------8--------10-------------|
|--12-------7--------8--------10-------------|
|--12-------7--------8--------10-------------|

Guitar 2
|--------------------------------------------|
|--------------------------------------------|
|--7--9-10--9--7--5--7--9-10--12-10--5-------|
|--x--x--x--x--x--x--x--x--x---x--x--x-------|
|--5--7--8--7--5--3--5--7--8--10--8--3-------|
|--------------------------------------------|

Guitar 1
|----------------------------------------------------------|
|----------------------------------------------------------|
|----------------------------------------------------------|
|--12-------7--------8----8--3/5-5-5-x-3/5-5-5-x-3-5-------|
|--12-------7--------8----8--3/5-5-5-x-3/5-5-5-x-3-5-------|
|--12-------7--------8----8--3/5-5-5-x-3/5-5-5-x-3-5-------|

Guitar 2
|----------------------------------------------------------|
|----------------------------------------------------------|
|--7--9-10--9--7--5--8----8--3/5-5-5-x-3/5-5-5-x-3-5-------|
|--x--x--x--x--x--x--8----8--3/5-5-5-x-3/5-5-5-x-3-5-------|
|--5--7--8--7--5--3--8----8--3/5-5-5-x-3/5-5-5-x-3-5-------|
|----------------------------------------------------------|

Verse 2
Lead In
Guitar 1
|-------------------------------------|
|-------------------------------------|
|-------------------------------------|
|-------------------------------------|
|-------------------------------------|
|--3p0-0-5p0-0-3p0-0-3p0-0-5-0-3-5----|
pm . . . . . . . . . . . . . . . .

Guitar 1
|------------------------------------------------------|
|------------------------------------------------------|
|------------------------------------------------------|
|--------------------------2-------------------------2-|
|--0-0-0-0-0-00-0-0-0-0-00-2-0-0-0-0-0-00-0-0-0-0-00-2-|
|--0-0-0-0-0-00-0-0-0-0-00-2-0-0-0-0-0-00-0-0-0-0-00-2-|
pm . . . . . .. . . . . . .  . . . . . .. . . . . ..

Guitar 1
|-----------------------------------------------------------------------|
|-----------------------------------------------------------------------|
|-----------------------------------------------------------------------|2x
|-----------------------------------------------------------------------|
|-----------------------------------------------------------------------|
|--3p0-0-5p0-0-3p0-0-3p0-0-5-0-3-5-3p0-0-5p0-0-3p0-0-3p0-0-6-5-3-5------|

Pre-Chorus

Chorus

Bridge
Here's the Bass line translated to guitar to help describe the timing
|---------------------------------------------------|
|---------------------------------------------------|
|---------------------------------------------------|
|----3---2---2---3---2-0-----3---2---2---3---2---5--|
|------------------------3--------------------------|
|--0---0---0---0---0-------0---0---0---0---0---0----|

Guitar 1
|----------------------------------------------------|
|----------------------------------------------------|
|--2~~~~~~~~~~~~~~~~~~~~~~~2~~~~~~~~~~~~~~~~~~~~~~~~~
|--0~~~~~~~~~~~~~~~~~~~~~~~0~~~~~~~~~~~~~~~~~~~~~~~~~
|--0~~~~~~~~~~~~~~~~~~~~~~~0~~~~~~~~~~~~~~~~~~~~~~~~~
|--0~~~~~~~~~~~~~~~~~~~~~~~0~~~~~~~~~~~~~~~~~~~~~~~~~
[ Tab from: http://www.guitartabs.cc/tabs/d/disturbed/sons_of_a_plunder_tab.html ]
|---------------------------------------------------|
|---------------------------------------------------|
|---------------------------------------------------|
|----3---2---2---3---2-0-----3---2---2---3---2---5--|
|------------------------3--------------------------|
|--0---0---0---0---0-------0---0---0---0---0---0----|

|---------------------------------------------------|
|---------------------------------------------------|
|~~~~~~~~~~~~~~~~~~~~~~~~~~~~~~~~~~~~~~~~~~~~~~~~~~~|
|~~~~~~~~~~~~~~~~~~~~~~~~~~~~~~~~~~~~~~~~~~~~~~~~~~~|
|~~~~~~~~~~~~~~~~~~~~~~~~~~~~~~~~~~~~~~~~~~~~~~~~~~~|
|~~~~~~~~~~~~~~~~~~~~~~~~~~~~~~~~~~~~~~~~~~~~~~~~~~~|

Part II
|---------------------------------------------------------------------------|
|---------------------------------------------------------------------------|
|---------------------------------------------------------------------------|
|-------------------------------------------------------------------12-11---|
|--0-10h12-0-12h13-0-10h12-0-12h13-0-8h10-0-10h12-0-12h13-0-10h12-0-10--9-0-|
|--0-10h12-0-12h13-0-10h12-0-12h13-0-8h10-0-10h12-0-12h13-0-10h12-0-------0-|
pm         .       .       .       .      .       .       .       .       .

|----------------------------------------------------------------------|
|----------------------------------------------------------------------|
|----------------------------------------------------------------------|2x
|----------------------------------------------8--8/13--13--8----------|
|-13p12-0-10h12-0-12h13-0-10h12-0-12h13-0-8h10-8--8/13--13--8----------|
|-13p12-0-10h12-0-12h13-0-10h12-0-12h13-0-8h10-8--8/13--13--8----------|
pm              .       .       .       .

Last Chorus

Guitar 1
   16x     16x      16x       16x
|--------------------------------------------|
|--------------------------------------------|
|--------------------------------------------|
|--12-------7--------8--------10-------------|
|--12-------7--------8--------10-------------|
|--12-------7--------8--------10-------------|

Guitar 2
|--------------------------------------------|
|--------------------------------------------|
|--7--9-10--9--7--5--7--9-10--12-10--5-------|
|--x--x--x--x--x--x--x--x--x---x--x--x-------|
|--5--7--8--7--5--3--5--7--8--10--8--3-------|
|--------------------------------------------|

Guitar 1
|----------------------------------------------------------|
|----------------------------------------------------------|
|----------------------------------------------------------|
|--12-------7--------8----8--3/5-5-5-x-3/5-5-5-x-3-5-------|
|--12-------7--------8----8--3/5-5-5-x-3/5-5-5-x-3-5-------|
|--12-------7--------8----8--3/5-5-5-x-3/5-5-5-x-3-5-------|

Guitar 2
|--------------------------------------------------------------|
|--------------------------------------------------------------|
|--7--9-10--9--7--5--8----8--3/5-5-5-x-3/5-5-5-x---------------|
|--x--x--x--x--x--x--8----8--3/5-5-5-x-3/5-5-5-x---------------|
|--5--7--8--7--5--3--8----8--3/5-5-5-x-3/5-5-5-x-0-0-0-3-------|
|--------------------------------------------------------5-4-3-|
pm                                               . . .   . . .

Guitar 1
   16x     16x      16x       16x
|--------------------------------------------|
|--------------------------------------------|
|--------------------------------------------|
|--12-------7--------8--------10-------------|
|--12-------7--------8--------10-------------|
|--12-------7--------8--------10-------------|

Guitar 2
|--------------------------------------------|
|--------------------------------------------|
|--7--9-10--9--7--5--7--9-10--12-10--5-------|
|--x--x--x--x--x--x--x--x--x---x--x--x-------|
|--5--7--8--7--5--3--5--7--8--10--8--3-------|
|--------------------------------------------|

Guitar 1
|----------------------------------------------------------|
|----------------------------------------------------------|
|----------------------------------------------------------|
|--12-------7--------8----8--3/5-5-5-x-3/5-5-5-x-3-5-------|
|--12-------7--------8----8--3/5-5-5-x-3/5-5-5-x-3-5-------|
|--12-------7--------8----8--3/5-5-5-x-3/5-5-5-x-3-5-------|

Guitar 2
|----------------------------------------------------------|
|----------------------------------------------------------|
|--7--9-10--9--7--5--8----8--3/5-5-5-x-3/5-5-5-x-3-5-------|
|--x--x--x--x--x--x--8----8--3/5-5-5-x-3/5-5-5-x-3-5-------|
|--5--7--8--7--5--3--8----8--3/5-5-5-x-3/5-5-5-x-3-5-------|
|----------------------------------------------------------|

Outro
Guitar 1
|-----------------------------------------------------------------------|
|-----------------------------------------------------------------------|
|-----------------------------------------------------------------------|2x
|-----------------------------------------------------------------------|
|-----------------------------------------------------------------------|
|--3p0-0-5p0-0-3p0-0-3p0-0-5-0-3-5-3p0-0-5p0-0-3p0-0-3p0-0-6-5-3-5------|
pm . . . . . . . . . . . . . . . . . . . . . . . . . . . . . . . .

Guitar 1
|-----------------------------------------------------------------------|
|-----------------------------------------------------------------------|
|-----------------------------------------------------------------------|2x
|-----------------------------------------------------------------------|
|-----------------------------------------------------------------------|
|--3p0-0-5p0-0-3p0-0-3p0-0-5-0-3-5-3p0-0-5p0-0-3p0-0-3p0-0-6-5-3-5------|
Comments