Disturbed - Sacred Lie Chords & Tabs

 

Sacred Lie Chords & Tabs

Disturbed Chords & Tabs

Version: 1 Type: Bass Tab

Sacred Lie Bass Tab

   
----Sacred Lie + Disturbed-----

-Tuning is: Drop C (All strings 1 step down, 2nd string an extra step on top of that)

-5 String Bass-
------A C G C F (low to high)------

Tabbed By: Jay Logan
Email: Subbliminal@DONTSPAM@hotmail.com 
           -Just remove the 'DONTSPAM of course.


Legend - I suggest looking over it, there are some descriptions, as well as special
cases.

 /  - Slide Right (If only 1 number just slide from anywhere towards it left to right)
 \  - Slide left (If only 1 number just slide from anywhere towards it right to left)
 ^  - Bend (5^7= bend the 5 fret until it sounds like 7, or 5^ = quick bend)
(~) - Vibrato (5(~) = Wiggle the string shown)
(5) - Natural Harmonic (Just put your finger lightly over the actually fret)
<5> - Artificial Harmonic (You pick the string and let your thumb touch as well while
holding the fret shown)
 x  - Mute that string
 .  - Palm Mute (Mute the note shown with picking hand palm, the '.' is under the note)
 h  - Hammer On (ie..3h5 = pic the 3rd fret and then hammer your finger into the 5th
without picking)
 p  - Pull Off (opposite of hammer on, 5p3 = pic the 5th while holding the 3rd as well,
then pull your finger of the 5th)


Duration Legend
---------------
W - whole
H - half
Q - quarter
E - 8th
S - 16th
T - 32nd
X - 64th
. - note dotted
|-n-|  - n-tuplets


F|
C|
G|
C|
A|

Time: 4/4
Bpm:  108


---Intro---


     W                    E  E  Q.     E   Q
F|---------------------|-----------------------|
C|---------------------|-----------------------|
G|---------------------|-----------------------|
C|---------------------|--0--0---------0-------|
A|---------------------|-----------------------|



    E  E      H.          E  E  Q.     E   Q
F|---------------------|-----------------------|
C|---------------------|-----------------------|
G|---------------------|-----------------------|
C|--0--0---------------|--0--0-----------------|
A|---------------------|---------------1-------|



---Intro Part 2---


    E  E  E  S S E  E  S S S S    S S E  E  S S E   E   S S S S
F|-----------------------------|--------------------------------|
C|-----------------------------|--------------------------------|
G|-----------------------------|--------------------------------|
C|--0--0--0--0-0-0--0--0-0-0-0-|--0-0-0--0--0-0-0---6---0-0-6-6-|
A|-----------------------------|--------------------------------|



    E  E  E  S S E  E  S S S S    S S E  E  S S S S S S S S S S
F|-----------------------------|--------------------------------|
C|-----------------------------|--------------------------------|
G|-----------------------------|--------------------------------|
C|--0--0--0--0-0-0--0--0-0-0-0-|--0-0-0--0--0-0-0-0-3-5---0-3-5-|
A|-----------------------------|------------------------3-------|



    E  E  E  S S E  E  S S S S    S S E  E  S S E   E   S S S S
F|-----------------------------|--------------------------------|
C|-----------------------------|--------------------------------|
G|-----------------------------|--------------------------------|
C|--0--0--0--0-0-0--0--0-0-0-0-|--0-0-0--0--0-0-0---6---0-0-6-6-|
A|-----------------------------|--------------------------------|



    E  E  E  S S E  E  S S S S    S S E  E  S S S S S S S S S S
F|-----------------------------|--------------------------------|
C|-----------------------------|--------------------------------|
G|-----------------------------|--------------------------------|
C|--0--0--0--0-0-0--0--0-0-0-0-|--0-0-0--0--0-0-0-0-3-5---0-3-5-|
A|-----------------------------|------------------------3-------|





---Verse---


    E  S S S S E  S S S S S S S S    E  S S S S E    H
F|--------------------------------|------------------------------|
C|--------------------------------|------------------------------|
G|--------------------------------|------------------------------|
C|--------------------------------|------------------------------|
A|--3--3-4-3-1-3--1-1---1-1---3-4-|--3--3-4-3-1-3----------------|



    E  S S S S E  S S S S S S S S   E  S S S S E  E  S S S S E
F|--------------------------------|------------------------------|
C|--------------------------------|------------------------------|
G|--------------------------------|------------------------------|
C|--------------------------------|----------------1--1-1-1-1-1--|
A|--3--3-4-3-1-3--1-1---1-1---3-4-|--3--3-4-3-1-3----------------|



    E  S S S S E  S S S S S S S S    E  S S S S E    H
F|--------------------------------|------------------------------|
C|--------------------------------|------------------------------|
G|--------------------------------|------------------------------|
C|--------------------------------|------------------------------|
A|--3--3-4-3-1-3--1-1---1-1---3-4-|--3--3-4-3-1-3----------------|



    E  S S S S E  S S S S S S S S    E  S S S S E  E  S S S S E
F|--------------------------------|------------------------------|
C|--------------------------------|------------------------------|
G|--------------------------------|------------------------------|
C|--------------------------------|----------------1--1-1-1-1-1--|
A|--3--3-4-3-1-3--1-1---1-1---3-4-|--3--3-4-3-1-3----------------|
  




---Chorus---


    Q    E.  S S S E.  E.     Q    E.  S S S E.  E.
F|-------------------------|---------------------------|
C|-------------------------|---------------------------|
G|-----------------0---0---|--1----1---1-1-1-----------|
C|-------------------------|-----------------3---2-----|
A|--3----3---3-3-3---------|---------------------------|


    Q    E.  S S S E.  E.     Q    E.  S S S E.  E.
F|-------------------------|---------------------------|
C|-------------------------|---------------------5-----|
G|-----------------0---0---|--1----1---1-1-1-----------|
C|-------------------------|-----------------3---------|
A|--3----3---3-3-3---------|---------------------------|


    Q    E.  S S S E.  E.     Q    E.  S S S E.  E.
F|-------------------------|---------------------------|
C|-------------------------|---------------------------|
G|-----------------0---0---|--1----1---1-1-1-----------|
C|-------------------------|-----------------3---2-----|
A|--3----3---3-3-3---------|---------------------------|


    E  E  E  E  E  E  E  E     E  E  E  E  E  E  E  E
F|--------------------------|--------------------------|
C|--------------------------|--------------------------|
G|--3-----3-----3-----3-----|--1-----1-----1-----1-----|
C|-----5-----5-----5-----5--|-----3-----3-----3-----3--|
A|--------------------------|--------------------------|





Post Chorus Riff (The intro)


    E  E  E  S S E  E  S S S S    S S E  E  S S E   E   S S S S
F|-----------------------------|--------------------------------|
C|-----------------------------|--------------------------------|
G|-----------------------------|--------------------------------|
C|--0--0--0--0-0-0--0--0-0-0-0-|--0-0-0--0--0-0-0---6---0-0-6-6-|
A|-----------------------------|--------------------------------|



    E  E  E  S S E  E  S S S S    S S E  E  S S      H
F|-----------------------------|--------------------------------|
C|-----------------------------|--------------------------------|
G|-----------------------------|--------------------------------|
C|--0--0--0--0-0-0--0--0-0-0-0-|--0-0-0--0--0-0-----------------|
A|-----------------------------|--------------------------------|






---Verse---


    E  S S S S E  S S S S S S S S    E  S S S S E    H
F|--------------------------------|------------------------------|
C|--------------------------------|------------------------------|
G|--------------------------------|------------------------------|
C|--------------------------------|------------------------------|
A|--3--3-4-3-1-3--1-1---1-1---3-4-|--3--3-4-3-1-3----------------|


[ Tab from: http://www.guitartabs.cc/tabs/d/disturbed/sacred_lie_btab.html ]
    E  S S S S E  S S S S S S S S   E  S S S S E  E  S S S S E
F|--------------------------------|------------------------------|
C|--------------------------------|------------------------------|
G|--------------------------------|------------------------------|
C|--------------------------------|----------------1--1-1-1-1-1--|
A|--3--3-4-3-1-3--1-1---1-1---3-4-|--3--3-4-3-1-3----------------|



    E  S S S S E  S S S S S S S S    E  S S S S E    H
F|--------------------------------|------------------------------|
C|--------------------------------|------------------------------|
G|--------------------------------|------------------------------|
C|--------------------------------|------------------------------|
A|--3--3-4-3-1-3--1-1---1-1---3-4-|--3--3-4-3-1-3----------------|



    E  S S S S E  S S S S S S S S    E  S S S S E  E  S S S S E
F|--------------------------------|------------------------------|
C|--------------------------------|------------------------------|
G|--------------------------------|------------------------------|
C|--------------------------------|----------------1--1-1-1-1-1--|
A|--3--3-4-3-1-3--1-1---1-1---3-4-|--3--3-4-3-1-3----------------|
  




---Chorus---


    Q    E.  S S S E.  E.     Q    E.  S S S E.  E.
F|-------------------------|---------------------------|
C|-------------------------|---------------------------|
G|-----------------0---0---|--1----1---1-1-1-----------|
C|-------------------------|-----------------3---2-----|
A|--3----3---3-3-3---------|---------------------------|


    Q    E.  S S S E.  E.     Q    E.  S S S E.  E.
F|-------------------------|---------------------------|
C|-------------------------|---------------------5-----|
G|-----------------0---0---|--1----1---1-1-1-----------|
C|-------------------------|-----------------3---------|
A|--3----3---3-3-3---------|---------------------------|


    Q    E.  S S S E.  E.     Q    E.  S S S E.  E.
F|-------------------------|---------------------------|
C|-------------------------|---------------------------|
G|-----------------0---0---|--1----1---1-1-1-----------|
C|-------------------------|-----------------3---2-----|
A|--3----3---3-3-3---------|---------------------------|


    E  E  E  E  E  E  E  E     E  E  E  E  E  E  E  E
F|--------------------------|--------------------------|
C|--------------------------|--------------------------|
G|--3-----3-----3-----3-----|--1-----1-----1-----1-----|
C|-----5-----5-----5-----5--|-----3-----3-----3-----3--|
A|--------------------------|--------------------------|






---Breakdown---
*NOTE: Repeat as needed


    E  E  E  S S E  E  S S S S    S S E  E  S S E   E   S S S S
F|-----------------------------|-----------------------------------|
C|-----------------------------|-----------------------------------|
G|-----------------------------|-----------------------------------|
C|--0--0--0--0-0-0--0--0-0-0-0-|--0-0-0--0--0-0-0---6---0-0-6-6----|
A|-----------------------------|-----------------------------------|



    S S S E.  S S S S E  S S S S   S S S S S S S S S S S S S S S S  
F|-------------------------------|---------------------------------|
C|-------------------------------|---------------------------------|
G|-------------------------------|---------------------------------|*
C|-------------------------------|---------------------------------|
A|--3-4-3-----3-4-3-1----1-3-3---|-3-4-3-3-3-1-3-4-3-3-1-3-3-3-3-3-|


Last Time Through


    S S S E.  S S S S E  S S S S   S S S S S S S S S S S S S E.  
F|-------------------------------|---------------------------------|
C|-------------------------------|---------------------------------|
G|-------------------------------|---------------------------------|
C|-------------------------------|---------------------------------|
A|--3-4-3-----3-4-3-1----1-3-3---|-3-4-3-3-3-1-3-4-3-3-1-3-3-------|




---Chorus---



    Q    E.  S S S E.  E.     Q    E.  S S S E.  E.
F|-------------------------|---------------------------|
C|-------------------------|---------------------------|
G|-----------------0---0---|--1----1---1-1-1-----------|
C|-------------------------|-----------------3---2-----|
A|--3----3---3-3-3---------|---------------------------|


    Q    E.  S S S E.  E.     Q    E.  S S S E.  E.
F|-------------------------|---------------------------|
C|-------------------------|---------------------5-----|
G|-----------------0---0---|--1----1---1-1-1-----------|
C|-------------------------|-----------------3---------|
A|--3----3---3-3-3---------|---------------------------|


    Q    E.  S S S E.  E.     Q    E.  S S S E.  E.
F|-------------------------|---------------------------|
C|-------------------------|---------------------------|
G|-----------------0---0---|--1----1---1-1-1-----------|
C|-------------------------|-----------------3---2-----|
A|--3----3---3-3-3---------|---------------------------|


    E  E  E  E  E  E  E  E     E  E  E  E  E  E  E  E
F|--------------------------|--------------------------|
C|--------------------------|--------------------------|
G|--3-----3-----3-----3-----|--1-----1-----1-----1-----|
C|-----5-----5-----5-----5--|-----3-----3-----3-----3--|
A|--------------------------|--------------------------|


    Q   E  S S S S E.  E.     Q   E  S S S S E.  E.  
F|-------------------------|---------------------------|
C|-------------------------|---------------------------|
G|-----------------0---0---|--1---1--1-1-1-1-----------|
C|-------------------------|-----------------3---2-----|
A|--3---3--3-3-3-3---------|---------------------------|


    Q   E  S S S S E.  E.     Q   E  S S S S E.  E.  
F|-------------------------|---------------------------|
C|-------------------------|---------------------5-----|
G|-----------------0---0---|--1---1--1-1-1-1-----------|
C|-------------------------|-----------------3---------|
A|--3---3--3-3-3-3---------|---------------------------|


    Q   E  S S S S E.  E.     Q   E  S S S S E.  E.  
F|-------------------------|---------------------------|
C|-------------------------|---------------------------|
G|-----------------0---0---|--1---1--1-1-1-1-----------|
C|-------------------------|-----------------3---2-----|
A|--3---3--3-3-3-3---------|---------------------------|


    E  E  E  E  E  E  E  E     E  E  E  E  E  E  E  E
F|--------------------------|--------------------------|
C|--------------------------|--------------------------|
G|--3-----3-----3-----3-----|--1-----1-----1-----1-----|
C|-----5-----5-----5-----5--|-----3-----3-----3-----3--|
A|--------------------------|--------------------------|



---Outro---


  E  E  E  S S E  E  S S S S    E  E  E  S S E  E  S S S S  
-----------------------------|-----------------------------|
-----------------------------|-----------------------------|
-----------------------------|-----------------------------|
--0--0--0--0-0-0--0--0-0-0-0-|--0--0--0--0-0-0--0--0-0-0-0-|
-----------------------------|-----------------------------|


  E  E  E  S S E  E  S S S S    E  E  E  S S    H          
-----------------------------|------------------------||
-----------------------------|------------------------||
-----------------------------|------------------------||
--0--0--0--0-0-0--0--0-0-0-0-|--0--0--0--0-0----------||
-----------------------------|------------------------||



----------
And there it is. I know I make these long but it is, in my opinion, easier to scroll
down instead of jumping around the tab looking for parts 

and sometimes there are parts with small differences and it just makes it easier for
me to show them by writing everything out.
Thanks,
-Jay Logan (Subbliminal@DONTSPAM@hotmail.com) Just remove the 'DONTSPAM of course.