Disturbed - Rise Chords & Tabs

 

Rise Chords & Tabs

Disturbed Chords & Tabs

Version: 4 Type: Tab 0 ratings
1 star 2 stars 3 stars 4 stars 5 stars
comments

Rise Tab

   
This song is in Dropped-D tuning
DADGBE.  It's pretty simple.

INTRO I:

E----------------------------
B----------------------------
G----------------------------
D---------------------------- 
A----------------------------
D-10-12-10-12-12-12-12-12-12-   <------Repeat this part 3x's

INTRO II: AFTER THIS PART GO BACK TO INTRO I
E-------------------------------------
B-------------------------------------
G-------------------------------------
D-------------------------------------
A-------------------------------------
D-10-10-10-10-10-10-15-15-15-10-10-10-

VERSE:
E|---------------|-------------------------------|
B|---------------|-------------------------------|
G|---------------|-------------------------------|
D|---------------|-------------------------------|
A|-10-12-10-12-12|-10-12-10-12-10-12-12-12-12-12-|
D|-10-12-10-12-12|-10-12-10-12-10-12-12-12-12-12-|  <-----Keep Repeating

NOW GO BACK TO INTRO II

PRE-CHORUS: "Do you really think I covet like you do"
[ Tab from: http://www.guitartabs.cc/tabs/d/disturbed/rise_tab_ver_4.html ]
E|--------|------|--------|------|--------|------|---------|
B|--------|------|--------|------|--------|------|---------|
G|--------|------|--------|------|--------|------|---------|
D|--------|------|--------|------|--------|------|---------|
A|-0-0-0-0|-0-0-0|-0-0-0-0|-0-0-0|-0-0-0-0|-0-0-0|-0-0-0-0-|
D|-0-0-0-0|-0-0-0|-0-0-0-0|-0-0-0|-0-0-0-0|-0-0-0|-0-0-0-0-|

CHORUS: "Come, take me away remove the fear from my eyes..."

   1      2                 3                   4
E|---|------------|---------------------|-----------------|
B|---|------------|---------------------|-----------------|
G|---|------------|---------------------|-----------------|
D|---|------------|---------------------|-----------------|
A|-10|-15-15-10-12|-15-15-10-12-10-10-10|-12-10-8-10-8-12-|  <-----AFTER THIS
D|-10|-15-15-10-12|-15-15-10-12-10-10-10|-12-10-8-10-8-12-|        LAST PART 
                                                                   PLAY 2, 3
COOL PART: "Hearing No one"
E|------------------------|--------------------------|
B|------------------------|--------------------------|
G|------------------------|--------------------------|
D|----------------------10|--------------------------|
A|-12-10-12-10-12-10-12---|--12-10-12-10-12-10-12----| <-----Finish off on 
D|-8-----------12---------|--8-----------12-------12-|       1st part
Comments