Disturbed - Rise Chords & Tabs

 

Rise Chords & Tabs

Disturbed Chords & Tabs

Version: 2 Type: Tab 0 ratings
1 star 2 stars 3 stars 4 stars 5 stars
comments

Rise Tab

   
Tabbed by:andres v
Email:nanokeeper@hotmail.com

Tuning:Db Ab Db Gb Bb Eb

intro riff 1
repeat the first part 3 times
|---------------------------------------------------------------------------|
|---------------------------------------------------------------------------|
|---------------------------------------------------------------------------|
|-3/-7-7-77777--------------------------------------------------------------|
|-3/-5-5-55555--------777---------------------------------------------------|
|--------------666666------666----------------------------------------------|


verse 
|---------------------------------------------------------------------------|
|---------------------------------------------------------------------------|
|---------------------------------------------------------------------------|
|-3/--7-7--7777-------------------------------------------------------------|
|-3/--5-5--5555------------777----------------------------------------------|
|-------------------666666-----666------------------------------------------|


riff 2
|---------------------------------------------------------------------------|
|---------------------------------------------------------------------------|
|---------------------------------------------------------------------------|
|---------------------------------------------------------------------------|
|---------------------------------------------------------------------------|
|-0000--000---0000---000--0000---000----------------------------------------|

riff 3
2times
|---------------------------------------------------------------------------|
|---------------------------------------------------------------------------|
|--7-x--3-3-3-x---7-x--3-3-3-x---7-x--3-3-3-x--2----------------------------|
|--7-x--3-3-3-x---7-x--3-3-3-x---7-x--3-3-3-x--2--2222222222----------------|
|--5-x--3-3-3-x---5-x--3-3-3-x---5-x--3-3-3-x--0--0000000000----------------|
|---------------------------------------------------------------------------|

[ Tab from: http://www.guitartabs.cc/tabs/d/disturbed/rise_tab_ver_2.html ]
riif 4
|---------------------------------------------------------------------------|
|---------------------------------------------------------------------------|
|----------------------7---------------------------------------7------------|
|-7~~~-5-7-5--7~~~-5-7---7-5-7-5--7~~~-5-7---7-5-7-5--7~~~-5-7--------------|
|------------------------------------------5--------------------------------|
|---------------------------------------------------------------------------|


riff 5
|---------------------------------------------------------------------------|
|---------------------------------------------------------------------------|
|---------------------------------------------------------------------------|
|333333333333333333---------------------------------------------------------|
|111111111111111111---------------------------------------------------------|
|---------------------------------------------------------------------------|


bridge
|---------------------------------------------------------------------------|
|---------------------------------------------------------------------------|
|---------------------------------------------------------------------------|
|---------------------------------------------------------------------------|
|-0-0---3-2-0-0---3-1-0-0---3-2-00000---3-1---------------------------------|
|-0-0---3-2-0-0---3-1-0-0---3-2-00000---3-1---------------------------------|

after 4 times

|---------------------------------------------------------------------------|
|---------------------------------------------------------------------------|
|---------------------------------------------------------------------------|
|---------------------------------------------------------------------------|
|---------------------------------------------------------------------------|
|\0-0---3-2-0-0---3-1-0-0---3-2-00000---3-1---------------------------------|


riff 6
|---------------------------------------------------------------------------|
|---------------------------------------------------------------------------|
|---------------------------------------------------------------------------|
|-333333--------------------------------------------------------------------|
|-111111--11111--000000-----------------------------------------------------|
|----------------000000--00000----------------------------------------------|

order of play

riff 1
verse
riff 2
riff 3
riff 4
riff 5
riff 1
verse
riff 2
riff 3
riff 4
riff 5
bridge
riff 5
riff 4
riff 6
riff 5
riff 1
 ===============================================================================
Comments