Disturbed - Remember Chords & Tabs

 

Remember Chords & Tabs

Disturbed Chords & Tabs

Version: 2 Type: Bass Tab 0 ratings
1 star 2 stars 3 stars 4 stars 5 stars
comments

Remember Bass Tab

   
drop to C# (C#,A,D,G)
key
~= play a few times(you can figure it out)

G  |------------------|------------------|
D  |------------------|------------------| play 2 times
A  |-----0------------|-----0------------|
C# |-00-3--00037-03-03|-00-3--00037-03-30| 
[ Tab from: http://www.guitartabs.cc/tabs/d/disturbed/remember_btab_ver_2.html ]
Verse                        1st  2nd
                             ___ ______
G  |----2-----1---------2---|-1-|------|
D  |---2-----2---2-2---2----|2--|------|this looks hard but its not
A  |--4-----4---4-4---4----4|---|-2222-| <---------------------|
C# |-0----0----------0----0-|---|------|                       |
    play this^...... then this^ skip 2nd ending                |
    play this again skip the 1st ending then play second ending|
           
Chorus           1st         2nd
               __________ _________
G  |----------|----------|---------|
D  |----------|----------|---------|
A  |-0~-------|-2~-4~----|-2~------| this is the same concept as above
C# |----3~-0~-|-------0~-|----5~-7~|

G  |----------------------|
D  |----------------------|
A  |-00-4440--------------| play 2 times(this is somewhere in the song you
C# |---------333-0000-330-| will know what it is when you hear it

G  |-------|this come right after this^
D  |-------|
A  |-------|
C# |-5~-2~-|

that is it it may look hard but really its not just practice it
and if you see any thing wrong tell me please.
Comments