Disturbed - Prayer Chords & Tabs

 

Prayer Chords & Tabs

Disturbed Chords & Tabs

Version: 7 Type: Tab 0 ratings
1 star 2 stars 3 stars 4 stars 5 stars
comments

Prayer Tab

Artist/Band: Disturbed
Album: Believe
Song: Prayer 
Transcriber: Jon Duprey [flipstylee6@hotmail.com]            

/* First and foremost, i would like to say that this may not be the correct way to play it,
   but it is the way *I* play it, and it sounds pretty damn good as compared to the cd.
   Some of what is here will most likely be found in other tabs, partly because of common 
   opinion. The fact of the matter is, I personally have recorded and compared, and i see
   no difference. If this sounds odd on your guitar, check your tuning, even the slightest 
   mis-tuning can throw this whole song off. Also, its worth noting that using your pinky
   finger to fret the Gb makes the Chorus much easier to play.                              */


     Intro/Riff 1
Eb:||--------------------------------------------------------------|-------| 
Bb:||--------------------------------------------------------------|-------| 
Gb:||--------------------------------------------------------------|-------| 
Db:||--0--0--0-0-0-0--0--0--0-0-0-0--0--0--0-0-0-0--0--0--0-0-0-0--|--8-5--|
Ab:||--0--0--0-1-0-1--0--0--0-1-0-1--3--3--3-3-3-3--6--6--6-6-6-5--|--8-5--|
Db:||--0--0--0-0-0-0--0--0--0-0-0-0--0--0--0-0-0-0--0--0--0-0-0-0--|--8-5--|
                                                           ^* 
*
 At the end of the second time through, play this riff, and either start
 the riff over, or start the next riff. 

  
     Riff 2 [Intro/Riff 1 w/ P.M.]
Eb:||--------------------------------------------------------------|-------| 
Bb:||--------------------------------------------------------------|-------|
Gb:||--------------------------------------------------------------|-------|
Db:||--0--0--0-0-0-0--0--0--0-0-0-0--0--0--0-0-0-0--0--0--0-0-0-0--|--8-5--|
Ab:||--0--0--0-1-0-1--0--0--0-1-0-1--3--3--3-3-3-3--6--6--6-6-6-5--|--8-5--|
Db:||--0--0--0-0-0-0--0--0--0-0-0-0--0--0--0-0-0-0--0--0--0-0-0-0--|--8-5--|
       |---------------------------------------------------------|
                                  P.M.

This is played when the singing [D.Draimen] comes in.


     Pre-Chorus                    
Eb:||---------------------------------------------|-------------| 
Bb:||---------------------------------------------|-------------|
Gb:||---------------------------------------------|-------------|
Db:||--7\-x-x-1-1--1--1-3-8-7\-x-x-1-1--1--1-3-1--|--3--3--3-3--|
Ab:||--7\-x-x-1-1--1--1-3-8-7\-x-x-1-1--1--1-3-1--|--3--3--3-3--|
Db:||--7\-x-x-1-1--1--1-3-8-7\-x-x-1-1--1--1-3-1--|--3--3--3-3--| 
                              ^*
*
 At the end of the second time through, play this riff, and immediately go
 into the Chorus.


     Chorus 
Eb:||-----------------------------------------------|
Bb:||-----------------------------------------------|
Gb:||--5--5-5--5--5--5-5--x-x--5--5-5--7--7--7-7-5--|
Db:||--3--3-3--3--3--3-3--x-x--3--3-3--5--5--5-5-3--|
Ab:||--1--1-1--1--1--1-1--x-x--3--3-3--5--5--5-5-3--|
Db:||--------------------------3--3-3--5--5--5-5-3--|
                                     ^*         ^*
**
  The arrow[s] here show where sliding from one chord to
  another may be as good as, or better sounding than simply fretting.

    
     Chorus [Cont...]
Eb:||--------------------------------------------------------|
Bb:||--------------------------------------------------------|
Gb:||--5--5-5--5--5--5-5--x-x--14--14-14--12--12--12-12--14--|
Db:||--3--3-3--3--3--3-3--x-x--12--12-12--10--10--10-10--12--|
Ab:||--1--1-1--1--1--1-1--x-x--12--12-12--10--10--10-10--12--|
Db:||--------------------------12--12-12--10--10--10-10--12--|
                                        ^*             ^*
[ Tab from: http://www.guitartabs.cc/tabs/d/disturbed/prayer_tab_ver_7.html ]
     Post Chorus
Eb:||--------------------------------------------------------------|
Bb:||--------------------------------------------------------------|
Gb:||--------------------------------------------------------------|
Db:||--8--8--8-8-8-8--8--8--8-8-8-8--8--8--8-8-8-8--8--8--8-8-8-8--|
Ab:||--8--8--8-8-8-8--8--8--8-8-8-8--8--8--8-8-8-8--8--8--8-8-8-8--|
Db:||--8--8--8-8-8-8--8--8--8-8-8-8--8--8--8-8-8-8--8--8--8-8-8-8--|

[If played for the first time] go directly into the Intro/Riff1. 
Otherwise, go to Riff 3.   
     
     
     Riff 3a
Eb:||--------------------------------------------------------------|
Bb:||--------------------------------------------------------------|
Gb:||--------------------------------------------------------------|
Db:||--0----12\----------------------------------------------------|
Ab:||--0----12\----------------------------------------------------|
Db:||--0----12\---2-2-0-2---2-2-0-2---0-2-0-2---2--0-2---2--0-2-3--|

This is played after the Post Chorus. The first Chord is played as a direct 
follow up to the last chord of the Post Chorus. also, let first chord ring
until the slide. 


     Riff 3b
Eb:||--------------------------------------------------|
Bb:||--------------------------------------------------|
Gb:||--------------------------------------------------|
Db:||-----------------------------------------3--3--3--|
Ab:||-----------------------------------------3--3--3--|
Db:||--2-2-0-2---2-2-0-2---0-2-0-2---2-2-0-2--3--3--3--|
                                             |-------|
                                                P.M.
     Riff 3c
Eb:||----------------------------------------------------|
Bb:||----------------------------------------------------|
Gb:||----------------------------------------------------|
Db:||--2-2-0-2---2-2-0-2---0-2-0-2---2--0-2---2--0-2--3--|
Ab:||--2-2-0-2---2-2-0-2---0-2-0-2---2--0-2---2--0-2--3--| ]-
Db:||--2-2-0-2---2-2-0-2---0-2-0-2---2--0-2---2--0-2--3--|   |
                                                             |
                                                             | Play 2x  
     Riff 3d                                                 | [3c,3d,3c,3d]
Eb:||--------------------------------------------------|     |
Bb:||--------------------------------------------------|   ]-
Gb:||--------------------------------------------------|
Db:||--2-2-0-2---2-2-0-2---0-2-0-2---2-2-0-2--3--3--3--|
Ab:||--2-2-0-2---2-2-0-2---0-2-0-2---2-2-0-2--3--3--3--|
Db:||--2-2-0-2---2-2-0-2---0-2-0-2---2-2-0-2--3--3--3--|

Go directly to chorus from here.

    
     Final Chorus [Chorus 2]
Eb:||--------------------------------------------------|
Bb:||--------------------------------------------------|
Gb:||--------------------------------------------------|
Db:||--8--8-8-8--8--8-8-8--8--x-x--3--3-3-5--5-5--5-3--|
Ab:||--8--8-8-8--8--8-8-8--8--x-x--3--3-3-5--5-5--5-3--|
Db:||--8--8-8-8--8--8-8-8--8--x-x--3--3-3-5--5-5--5-3--|
           |---|     |---|                    |-|
            P.M.      P.M.                    P.M.

Repeat this 4 times then Riff 4.


     Post Chorus
Eb:||--------------------------------------------------------------|
Bb:||--------------------------------------------------------------|
Gb:||--------------------------------------------------------------|
Db:||--8--8--8-8-8-8--8--8--8-8-8-8--8--8--8-8-8-8--8--8--8-8-8-8--|
Ab:||--8--8--8-8-8-8--8--8--8-8-8-8--8--8--8-8-8-8--8--8--8-8-8-8--|
Db:||--8--8--8-8-8-8--8--8--8-8-8-8--8--8--8-8-8-8--8--8--8-8-8-8--|

    
     Outro [Ending Riff]
Eb:||-----------------------------------------------------|
Bb:||-----------------------------------------------------|
Gb:||-----------------------------------------------------|
Db:||--0--0--0-0-0-0--0--0--0-0-0-0--0--0--0-0-0-0--0--0--|
Ab:||--0--0--0-0-0-0--0--0--0-0-0-0--0--0--0-0-0-0--0--0--|
Db:||--0--0--0-0-0-0--0--0--0-0-0-0--0--0--0-0-0-0--0--0--|
      |-------------------------------------------------|
                             P.M.
Comments