Disturbed - Prayer Chords & Tabs

 

Prayer Chords & Tabs

Disturbed Chords & Tabs

Version: 5 Type: Tab 0 ratings
1 star 2 stars 3 stars 4 stars 5 stars
comments

Prayer Tab

   
This is the CORRECT way to play Prayer.  It is in drop D flat 
(Db Ab Db Gb Bb Eb) Play with heavy distortion

Eb|----------------------------------------------------------------|
Bb|----------------------------------------------------------------|
Gb|----------------------------------------------------------------|
Db|----------------------------------------------------------------|
Ab|12-12-12-12-12-12-12-12-12-12-15-15-15-15-18-18-17-17-12-12-12--|
Db|0--0--0--13-0--13-0--13-0--13-0--13-0--13-0--13-0--13-0--0--13--|
[ Tab from: http://www.guitartabs.cc/tabs/d/disturbed/prayer_tab_ver_5.html ]
Eb|----------------------------------------------------------------|
Bb|----------------------------------------------------------------|
Gb|----------------------------------------------------------------|
Db|----------------------------------------------------------------|
Ab|12-12-12-12-12-12-15-15-15-15-18-13-10-12-12-12-12-12-12-12-12--|
Db|0--13-0--13-0--13-0--13-0--13-0--13-10-0--0--13-0--13-0--13-0---|

Eb|----------------------------------------------------------------|
Bb|----------------------------------------------------------------|
Gb|----------------------------------------------------------------|
Db|----------------------------------------------------------------|
Ab|12-12-12-15-15-15-15-18-13-10-----------------------------------|
Db|13-0--13-0--13-0--13-0--13-10-0---------------------------------|

If you have any questions, you can E-mail me at caveman_ten@yahoo.com. Good luck.
Once you get the hang of it, it's a song thats hard to stop playing
Comments