Disturbed - Prayer Chords & Tabs

 

Prayer Chords & Tabs

Disturbed Chords & Tabs

Version: 1 Type: Bass Tab 0 ratings
1 star 2 stars 3 stars 4 stars 5 stars
comments

Prayer Bass Tab

Distured: Prayer
Tabbed by Creed861

if you have any questions e-mail me at sosa101@aol.com

Intro-
---------------------------------------------------------------
--------------------------------------------------------------- 4 times
---------------------------------------------------------------
0-0-0-0-22-0-0--0-0-0-0-22-0-0--0-0-0-0-22-0-0--0-0-0-0-22-0-0-

Verse- Another Dream about to come true...
----------------------------------------------------------------
---------------------------------------------------------------- 4 times
----------------------------------------------------------------
0-0-0-0-0-0--0-0-0-0-0-0--5-5-5-5-5-5--0-0-2-2-0-2--------------

Pre Chorus- Let me enlighten you...
----------------------------------------------------------------
---------------------------------------------------------------- 4 times
7-11-1-1-1-1-4/-------------------------------------------------
----------------------------------------------------------------

Chorus- This is the way I pray...
----------------------------------------------------------------
---------------------------------------------------------------- 2 times
--------------------------------2-2-2-2-2-2-2-2--------5-5-5-5--
7-7-7-7-7-7-7-7-2-2-2-2-5-5-5-5---------------2-2-2-2-----------

Pre Verse-
---------------------------------------------------------------
--------------------------------------------------------------- 4 times
---------------------------------------------------------------
0-0-0-0-22-0-0--0-0-0-0-22-0-0--0-0-0-0-22-0-0--0-0-0-0-22-0-0-

Verse- Another nightmare about to come true...
----------------------------------------------------------------
---------------------------------------------------------------- 4 times
----------------------------------------------------------------
0-0-0-0-0-0--0-0-0-0-0-0--5-5-5-5-5-5--0-0-2-2-0-2--------------
[ Tab from: http://www.guitartabs.cc/tabs/d/disturbed/prayer_btab.html ]
Pre Chorus- Let me enlighten you...
----------------------------------------------------------------
---------------------------------------------------------------- 4 times
7-11-1-1-1-1-4/-------------------------------------------------
----------------------------------------------------------------

Chorus- This is the way I pray...
----------------------------------------------------------------
---------------------------------------------------------------- 2 times
--------------------------------2-2-2-2-2-2-2-2--------5-5-5-5--
7-7-7-7-7-7-7-7-2-2-2-2-5-5-5-5---------------2-2-2-2-----------

Pre Interlude- Away...........
---------------------------------------------------------------
--------------------------------------------------------------- 1 time
---------------------------------------------------------------
0-0-0-0-22-0-0--0-0-0-0-22-0-0--0-0-0-0-22-0-0--0-0-0-0-22-0-0-

Interlude- Return to me...
-----------------------------------------------------------
----------------------------------------------------------- 4 times
-----------------------------------------------------------
0202-0202-0202-2-0-22-2-0-2-5------------------------------

Chorus- This is the way I pray...
----------------------------------------------------------------
---------------------------------------------------------------- 4 times
--------------------------------2-2-2-2-2-2-2-2--------5-5-5-5--
7-7-7-7-7-7-7-7-2-2-2-2-5-5-5-5---------------2-2-2-2-----------

Pre Outro- Away.............
---------------------------------------------------------------
--------------------------------------------------------------- 1 time
---------------------------------------------------------------
0-0-0-0-22-0-0--0-0-0-0-22-0-0--0-0-0-0-22-0-0--0-0-0-0-22-0-0-

Outro-
---------------------------------------------------------------
--------------------------------------------------------------- 1 time
---------------------------------------------------------------
0-0-0000-0-0-0000-0-0-0000-0-0---------------------------------
Comments