Disturbed - Perfect Insanity Chords & Tabs

 

Perfect Insanity Chords & Tabs

Disturbed Chords & Tabs

Version: 1 Type: Tab

Perfect Insanity Tab

   
Artist:Disturbed
Song:Perfect Insanity
Album:Unreleased
Year:2000


This song is an awesome early Disturbed song. It's an unreleased or "B-sides" track but
can find it and their home-made music video for it on their only DVD, M.O.L.

Drop D(Db,Ab,Db,Gb,Bb,eb)
p=pull off
h=hammer on
b=bend
*=harmonic
~=vibrato
/or=slide
P.M.=palm mute

Intro:There is a drum solo thingy in the intro before the guitar comes in.
e-------------------------------------------------|
B-------------------------------------------------|
G-------------------------------------------------|
D-------------------------------------------------|
A-0--00-3h5-0--3--00-3h5-0--3-00-3h5-0-3-000000---|
D-0--00-----0--3--00-----0--3-00-----0-3-000000---|
P.M. ..     .     ..     .    ..     .   ......

e-------------------------------------------------|
B-------------------------------------------------|
G-------------------------------------------------|
D-------------------------------------------------|
A-0--00-3h5-0--3--00-3h5-0--3-00-3h5-0-3-000000---|
D-0--00-----0--3--00-----0--3-00-----0-3-000000---|
P.M. ..     .     ..     .    ..     .   ......

e-------------------------------------------------|
B-------------------------------------------------|
G-------------------------------------------------|
D-------------------------------------------------|
A-0--00-3h5-0--3--00-3h5-0--3-00-3h5-0-3-000000---|
D-0--00-----0--3--00-----0--3-00-----0-3-000000---|
P.M. ..     .     ..     .    ..     .   ......

e-------------------------------------------------|
B-------------------------------------------------|
G-------------------------------------------------|
D-------------------------------------------------|
A-0--00-3h5-0--3--00-3h5-0--3-00-3h5-0-3-000000---|
D-0--00-----0--3--00-----0--3-00-----0-3-000000---|
P.M. ..     .     ..     .    ..     .   ......

Verse
e----------------------------------------------------|
B----------------------------------------------------|
G----------------------------------------------------|
D----------------------------------------------------|
A-3---------3-3------3-3------3-3--3-3--3-3--333333--|
D-3---------3-3------3-3------3-3--3-3--3-3--333333--|
    ^Between these are probably more time, on second verse too!

e-------------------------------------------------------------------|
B-------------------------------------------------------------------|
G-------------------------------------------------------------------|
D-------------------------------------------------------------------|
A-3h5---3h5--3h5---3h5--3h5---3h5--3h5---3h5--3h5---3h5--3h5---3h5--|
D-----0----------0----------0----------0----------0----------0------|
P.M.  .          .          .          .          .          .

e-------------------------------------------------------------------|
B-------------------------------------------------------------------|
G-------------------------------------------------------------------|
D-------------------------------------------------------------------|
A-3h5---3h5--3h5---3h5--3h5---3h5--3h5---3h5--3h5---3h5--3h5---3h5--|
D-----0----------0----------0----------0----------0----------0------|
P.M.  .          .          .          .          .          .


Pre-chorus
e------------------------------------------------------------------|
B------------------------------------------------------------------|
G------------------------------------------------------------------|
D-7-0----------7-0----------7777--7-0----------7-0----------7777---|
A-7-0--000000--7-0--000000--7777--7-0--000000--7-0--000000--7777---|
D-7-0--000000--7-0--000000--7777--7-0--000000--7-0--000000--7777---|
P.M.   ......       ......             ......       ......

e------------------------------------------------|
B------------------------------------------------|
G------------------------------------------------|
D-7-0----------7-0----------7777-----------------|
A-7-0--000000--7-0--000000--7777-----------------|
D-7-0--000000--7-0--000000--7777--7~~7~~7~~7~~---|
P.M.   ......       ......

Chorus
e-----------------------------------------------|
B-----------------------------------------------|
G-----------------------------------------------|
D-7---------3---------7-----------3-------------|
A-7-----3h5-3-----3h5-7-----3h5---3-000000------|
D-7--00-----3--00-----7--00-----0-3-000000------|
P.M. ..        ..        ..     .   ......

e-----------------------------------------------|
B-----------------------------------------------|
G-----------------------------------------------|
D-7---------3---------7-----------3-------------|
A-7-----3h5-3-----3h5-7-----3h5---3-000000------|
D-7--00-----3--00-----7--00-----0-3-000000------|
P.M. ..        ..        ..     .   ......

e-----------------------------------------------|
B-----------------------------------------------|
G-----------------------------------------------|
D-7---------3---------7-----------3-------------|
A-7-----3h5-3-----3h5-7-----3h5---3-000000------|
D-7--00-----3--00-----7--00-----0-3-000000------|
P.M. ..        ..        ..     .   ......

e-----------------------------------------------|
B-----------------------------------------------|
G-----------------------------------------------|
D-7---------3---------7-----------3-------------|
A-7-----3h5-3-----3h5-7-----3h5---3-000000------|
D-7--00-----3--00-----7--00-----0-3-000000------|
P.M. ..        ..        ..     .   ......

Bridge
e--------------|
B--------------|
G--------------|
D-333333--3----|
A-333333--3----|
D-333333--3----|

Verse
e----------------------------------------------------|
B----------------------------------------------------|
G----------------------------------------------------|
D----------------------------------------------------|
A-3---------3-3------3-3------3-3--3-3--3-3--333333--|
D-3---------3-3------3-3------3-3--3-3--3-3--333333--|

e-------------------------------------------------------------------|
B-------------------------------------------------------------------|
G-------------------------------------------------------------------|
D-------------------------------------------------------------------|
A-3h5---3h5--3h5---3h5--3h5---3h5--3h5---3h5--3h5---3h5--3h5---3h5--|
D-----0----------0----------0----------0----------0----------0------|
P.M.  .          .          .          .          .          .

e-------------------------------------------------------------------|
B-------------------------------------------------------------------|
G-------------------------------------------------------------------|
D-------------------------------------------------------------------|
A-3h5---3h5--3h5---3h5--3h5---3h5--3h5---3h5--3h5---3h5--3h5---3h5--|
D-----0----------0----------0----------0----------0----------0------|
P.M.  .          .          .          .          .          .
[ Tab from: http://www.guitartabs.cc/tabs/d/disturbed/perfect_insanity_tab.html ]
Pre-chorus
e------------------------------------------------------------------|
B------------------------------------------------------------------|
G------------------------------------------------------------------|
D-7-0----------7-0----------7777--7-0----------7-0----------7777---|
A-7-0--000000--7-0--000000--7777--7-0--000000--7-0--000000--7777---|
D-7-0--000000--7-0--000000--7777--7-0--000000--7-0--000000--7777---|
P.M.   ......       ......             ......       ......

e------------------------------------------------|
B------------------------------------------------|
G------------------------------------------------|
D-7-0----------7-0----------7777-----------------|
A-7-0--000000--7-0--000000--7777-----------------|
D-7-0--000000--7-0--000000--7777--7~~7~~7~~7~~---|
P.M.   ......       ......

Chorus
e-----------------------------------------------|
B-----------------------------------------------|
G-----------------------------------------------|
D-7---------3---------7-----------3-------------|
A-7-----3h5-3-----3h5-7-----3h5---3-000000------|
D-7--00-----3--00-----7--00-----0-3-000000------|
P.M. ..        ..        ..     .   ......

e-----------------------------------------------|
B-----------------------------------------------|
G-----------------------------------------------|
D-7---------3---------7-----------3-------------|
A-7-----3h5-3-----3h5-7-----3h5---3-000000------|
D-7--00-----3--00-----7--00-----0-3-000000------|
P.M. ..        ..        ..     .   ......

e-----------------------------------------------|
B-----------------------------------------------|
G-----------------------------------------------|
D-7---------3---------7-----------3-------------|
A-7-----3h5-3-----3h5-7-----3h5---3-000000------|
D-7--00-----3--00-----7--00-----0-3-000000------|
P.M. ..        ..        ..     .   ......

e-----------------------------------------------|
B-----------------------------------------------|
G-----------------------------------------------|
D-7---------3---------7-----------3-------------|
A-7-----3h5-3-----3h5-7-----3h5---3-000000------|
D-7--00-----3--00-----7--00-----0-3-000000------|
P.M. ..        ..        ..     .   ......

Interlude:Little hard to figure out, uses EFX.
e----------------------------------------------------------------|
B------------------------4~~~~~~~~~---4--2~~~~4------------------|
G-4------------4--------------------------------3---3~~~~--------|
D-2------------2----------------------------------------2~~~~----|
A----------------------------------------------------------------|
D----------------------------------------------------------------|
   ^Yes you hold between these two!

e----------------------------------------------------------------|
B-14b------------14b---------------------------------------------|
G------14~~~~~-------14--12--------------------------------------|
D---------------------------14-12-10-----------------------------|
A------------------------------------15-14-12-10~~~~-------------|
D----------------------------------------------------------------|

e----------------------------------------------------------------------------|
B-----------------7b-----------------7b-----------------7b-------------------|
G-----------------5b-----------------5b-----------------5b-------------------|
D-0--------3---------0--------3---------0--------3---------0--------3--------|
A-0----3h5-3----3----0----3h5-3----3----0----3h5-3----3----0----3h5-3--------|
D-0-00-----3-00------0-00-----3-00------0-00-----3-00------0-00-----3-000000-|
P.M...       ..        ..       ..        ..       ..        ..       ......

e----------------------------------------------------------------------------|
B-----------------7b-----------------7b-----------------7b-------------------|
G-----------------5b-----------------5b-----------------5b-------------------|
D-0--------3---------0--------3---------0--------3---------0--------3--------|
A-0----3h5-3----3----0----3h5-3----3----0----3h5-3----3----0----3h5-3--------|
D-0-00-----3-00------0-00-----3-00------0-00-----3-00------0-00-----3-000000-|
P.M...       ..        ..       ..        ..       ..        ..       ......

e----------------------------------------------------------------------------|
B-----------------7b-----------------7b-----------------7b-------------------|
G-----------------5b-----------------5b-----------------5b-------------------|
D-0--------3---------0--------3---------0--------3---------0--------3--------|
A-0----3h5-3----3----0----3h5-3----3----0----3h5-3----3----0----3h5-3--------|
D-0-00-----3-00------0-00-----3-00------0-00-----3-00------0-00-----3-000000-|
P.M...       ..        ..       ..        ..       ..        ..       ......

e----------------------------------------------------------------------------|
B-----------------7b-----------------7b-----------------7b-------------------|
G-----------------5b-----------------5b-----------------5b-------------------|
D-0--------3---------0--------3---------0--------3---------0--------3--------|
A-0----3h5-3----3----0----3h5-3----3----0----3h5-3----3----0----3h5-3--------|
D---00-----3-00------0-00-----3-00------0-00-----3-00------0-00-----3-000000-|
P.M...       ..        ..       ..        ..       ..        ..       ......

Outro
e--------------------------------------------------------------------------|
B--------------------------------------------------------------------------|
G--------------------------------------------------------------------------|
D-3--------3--------3--------3--------3--------3--------3--------3---------|
A-3-000000-3-000000-3-000000-3-000000-3-000000-3-000000-3-000000-3-000000--|
D-3-000000-3-000000-3-000000-3-000000-3-000000-3-000000-3-000000-3-000000--|
P.M.......   ......   ......   ......   ......   ......   ......   ......

e--------------------------------------------------------------------------|
B--------------------------------------------------------------------------|
G--------------------------------------------------------------------------|
D-3--------3--------3--------3--------3--------3--------3--------3---------|
A-3-000000-3-000000-3-000000-3-000000-3-000000-3-000000-3-000000-3-000000--|
D-3-000000-3-000000-3-000000-3-000000-3-000000-3-000000-3-000000-3-000000--|
P.M.......   ......   ......   ......   ......   ......   ......   ......

e--------------------------------------------------------------------------|
B--------------------------------------------------------------------------|
G--------------------------------------------------------------------------|
D-3--------3--------3--------3--------3--------3--------3--------3---------|
A-3-000000-3-000000-3-000000-3-000000-3-000000-3-000000-3-000000-3-000000--|
D-3-000000-3-000000-3-000000-3-000000-3-000000-3-000000-3-000000-3-000000--|
P.M.......   ......   ......   ......   ......   ......   ......   ......

e--------------------------------------------------------------------------|
B--------------------------------------------------------------------------|
G--------------------------------------------------------------------------|
D-3--------3--------3--------3--------3--------3--------3--------3---------|
A-3-000000-3-000000-3-000000-3-000000-3-000000-3-000000-3-000000-3-000000--|
D-3-000000-3-000000-3-000000-3-000000-3-000000-3-000000-3-000000-3-000000--|
P.M.......   ......   ......   ......   ......   ......   ......   ......

e------------------------------|
B------------------------------|
G------------------------------|
D-333---------------------/3---|
A-333---------------------/3---|
D-333---------------------/3---|

Holy crap!!! This took me 3 days!! I know this not 100% accurate but it's better than nothing.
The guitar has a very crappy distortion and it makes it more quiet but this is it! It's 
bad production. Suggestions, e-mail me at irishmatt1992@yahoo.com or leave a coment!