Disturbed - Pain Redefined Chords & Tabs

 

Pain Redefined Chords & Tabs

Disturbed Chords & Tabs

Version: 4 Type: Tab

Pain Redefined Tab

SONG:PAIN REDEFINED
ALBUM:TEN THOUSAND FISTS
TUNING:DROP C (CGCFAD)


 I KNOW DITURBED TUNING IS USUALLY 1/2 STEP DOWN THEN D,BUT THE NEW ALBUM
 IS ALL DROP C THIS SONG IS 100%.

* = PALM MUTE
/ = SLIDE
) = DELAY COUNTS
+ = HARMONICS


  INTRO 1 WITH DISTORTION & DELAY
D----------------------------------------|
A----------------------------------------|
F----------------------------------------|
C----------------------------------------|  X2
G------8-)-)----8-)------6-)-)----6-)----|
C--555-------55------555-------55--------|
   ***       **      ***       **

  INTRO 2 DISTORTION (DELAY OFF)
D---------------------------------------------|
A---------------------------------------------|
F---------------------------------------------|
C---------------------------------------------|  X2
G------8-----6----------------6------9--------|
C--555---555---55-6-55-9-5555-6-5555-9--------|
   ***   ***   **   **   ****   ****

   VERSE
D-------------------------------------------------------------------|
A-------------------------------------------------------------------|
F-------------------------------------------------------------------|
C-------------------------------------------------------------------|
G--55-5-55-5-5555--55-5-55-5-5555--11-1-11-1-1111--33-3-33-3-3333---|
C--55-5-55-5-5555--55-5-55-5-5555--11-1-11-1-1111--33-3-33-3-3333---|
   ** * ** * ****  ** * ** * ****  ** * ** * ****  ** * ** * ****

[ Tab from: http://www.guitartabs.cc/tabs/d/disturbed/pain_redefined_tab_ver_4.html ]
   PRE-CHORUS
D-----------------------------------------------------------------|
A-----------------------------------------------------------------|
F-----------------------------------------------------------------|
C-----------------------------------------------------------------|
G--565-55-5-5-565--5/8-5-55-5-5-565--5/10-5-55-55-565--3-3-3-3-8--|
C--565-55-5-5-565--5/8-5-55-5-5-565--5/10-5-55-55-565--3-3-3-3-8--|


  CHORUS
D----------------------------------------------------------|
A----------------------------------------------------------|
F-----------8-8/7---------------7-7/10-10-----------8-8/7--|
C-----------6-6/5---------------5-5/8--8------------6-6/5--|
G--5-3-/8-1--------4-5---5-3-/8------------5-3-/8-1--------|
C--5-3-/8-1--------4-5---5-3-/8------------5-3-/8-1--------|

D-------------------------------|
A-------------------------------|
F-------------------------------|
C--5----5----5----7-7-7-7/10----|
G--3-55-3-55-3-55-5-5-5-5/8-----|
C----55---55---55---------------|

   INTERLUDE (CLEAN)
D---------------------|
A---------------------|
F--------5----5-5-3---|
C------5----5---------|  X8
G---------------------|
C---5-----5-----------|


D--------------------|
A--------------------|
F------5----5-5-3----|
C----5----5----------| X3
G--------------------|
C--5----3------------|


D---------------------|
A------1----1------3--|
F---------------------|
C----3----3-----5-----|
G--1----1-----3-------|
C---------------------|


   DISTORTION
D----------------------------------------------|
A----------------------------------------------|
F----------------------------------------------|
C----------------------------------------------|
G--1010101010-/8--5-3-6-3---5-3-6-3--5-5-3-6---|
C--1010101010-/8--5-3-6-3---5-3-6-3--5-5-3-6---|
   **********


D---------------------|
A---------------------|
F---------------------|
C---------------------|
G--5-33-6-5-----------|
C--5-33-6-5--44444----|
   * ** * *  +++++


PLAY CHORUS
THEN END ON PRE-CHORUS


THATS ALL ANY COMMENTS EMAIL GUITAR_HERO_84@HOTMAIL.COM

TABBED BY: TAB_MAN84