Disturbed - Numb Chords & Tabs

 

Numb Chords & Tabs

Disturbed Chords & Tabs

Version: 2 Type: Tab 0 ratings
1 star 2 stars 3 stars 4 stars 5 stars
comments

Numb Tab

Song: "Numb"
Artist: Disturbed
Album: The Sickness
Transcribed By: Bryan Bramlett (bryanmb87@aol.com)

Tuning: 1/2 Step Down, Drop D

MAIN RIFF:
|------------------------------------------|
|------------------------------------------|
|------------------------------------------|
|-1-3-3-3-3-3-0--0-12--1-3-3-3-3-3-0--0-12-|
|-1-3-3-3-3-3-0--0-12--1-3-3-3-3-3-0--0-12-|
|-1-3-3-3-3-3-0--0-12--1-3-3-3-3-3-0--0-12-|

VERSE:
|---------------|
|---------------|
|---------------|
|-1-3-3-3-3---0-|
|-1-3-3-3-3---0-|
|-1-3-3-3-3---0-|
PM. . . . . 
[ Tab from: http://www.guitartabs.cc/tabs/d/disturbed/numb_tab_ver_2.html ]
CHORUS:
|--------------------|
|--------------------|
|--------------------|
|-6-5-3-0-6-0-00-3-0-|
|-6-5-3-0-6-0-00-3-0-|
|-6-5-3-0-6-0-00-3-0-|
PM            ..

CHORUS 2:
|---------------------|
|---------------------|
|---------------------|
|-9X9-X999101010-X-12-|
|-9X9-X999101010-X-12-|
|-9X9-X999101010-X-12-|

BRIDGE:
|----------------|
|----------------|
|----------------|
|----------------|
|----------------|
|-0--0-7/8-7-3-1-|

FILL:
|---------------------------|
|---------------------------|
|---------------------------|
|---------------------------|
|---------------------------|
|-5p3-0-5p3-0-5p3-0-5p3-5p3-|

OUTRO: (palm mute)
|---------------------------------|
|---------------------------------|
|---------------------------------|
|---------------------------------|
|-5-3-0-5-3-0-5-3-0-5-3-0-5-3-5-3-|
|-5-3-0-5-3-0-5-3-0-5-3-0-5-3-5-3-|

====
Comments