Disturbed - Numb Chords & Tabs

 

Numb Chords & Tabs

Disturbed Chords & Tabs

Version: 1 Type: Bass Tab 0 ratings
1 star 2 stars 3 stars 4 stars 5 stars
comments

Numb Bass Tab

   
Tuning-Bb,Db,Ab,Db,Gb

Intro/Verse
|-------------7-|
|-------------7-|  x16
|-------------5-|
|-0h3-3-3-3\5---|
|---------------|

Pre Chorus
|---------|
|---------|
|---------|
|-5br-3-0-|
|---------|

|------------------------|
|------------------------|  x3
|------------------------|
|-6-0--0-0-3---0-5br-3-0-|
|------------------------|

|----------------------|
|----------------------|
|----------------------|
|-6-0--0-0-3---0-----3-|
|----------------------|

Chorus
|---------------------------------|
|---------------------------------|  x3
|-2---2-----2---2-3---3-----5---5-|
|---2---2-2---2-----2---2-2---2---|
|---------------------------------|

|---------------------------|
|---------------------------|
|-2---2-----2---2-3---3-----|
|---2---2-2---2-----2---2\/-|
|---------------------------|

|-------------7-|
|-------------7-|  x8
|-------------5-|
|-0h3-3-3-3\5---|
|---------------|

|---------|
|---------|
|---------|
|-5br-3-0-|
|---------|

|------------------------|
|------------------------|  x3
|------------------------|
|-6-0--0-0-3---0-5br-3-0-|
|------------------------|

|----------------------|
|----------------------|
|----------------------|
|-6-0--0-0-3---0-----3-|
|----------------------|

|---------------------------------|
|---------------------------------|  x3
|-2---2-----2---2-3---3-----5---5-|
|---2---2-2---2-----2---2-2---2---|
|---------------------------------|

|---------------------------|
|---------------------------|
|-2---2-----2---2-3---3-----|
|---2---2-2---2-----2---2\/-|
|---------------------------|

Bridge
|---------------------------------------8-|
|---------------------------------------8-|  x2
|------0h1-0----------------0h1-0---3---6-|
|-0--0---------3--x-1--0--0---------------|
|-----------------------------------------|
[ Tab from: http://www.guitartabs.cc/tabs/d/disturbed/numb_btab.html ]
|---------------------------------|
|---------------------------------|_
|-2---2-----2---2-3---3-----5---5-| |
|---2---2-2---2-----2---2-2---2---| |
|---------------------------------| |__x2
                                    |
|---------------------------|       |
|---------------------------|_______|
|-2---2-----2---2-3---3-----|
|---2---2-2---2-----2---2\/-|
|---------------------------|

|---------------------------------------8-|
|---------------------------------------8-|
|------0h1-0----------------0h1-0---3---6-|
|-0--0---------3--x-1--0--0---------------|
|-----------------------------------------|

|-------------------------------------------------|
|-------------------------------------------------|
|-2---2---2---2-3---3-----2---2---2---2-3---3-----|
|---2-------2-----2---------2-------2-----2-----3-|
|-------------------------------------------------|

|------------------------------------------------------|
|------------------------------------------------------|
|-2---2---2---2-3---3-----2---2---2---2-3---3----------|
|---2-------2-----2---------2-------2-----2----5br-3-0-|
|------------------------------------------------------|

|------------------------|
|------------------------|  x3
|------------------------|
|-6-0--0-0-3---0-5br-3-0-|
|------------------------|

|---------------------------------|
|---------------------------------|
|---------------------------------|
|-3br-0-3br-0-3br-0-3br-0-5br-3-0-|
|---------------------------------|

|------------------------|
|------------------------|  x3
|------------------------|
|-6-0--0-0-3---0-5br-3-0-|
|------------------------|

Outro
|---------------------------------|
|-3-2-0-3-2-0-3-2-0-3-2-0-3-2-3-2-|  x4
|---------------------------------|
|---------------------------------|
|---------------------------------|

|---------------------------------|
|---------------------------------|  x4
|---------------------------------|
|-5-3-0-5-3-0-5-3-0-5-3-0-5-3-5-3-|
|---------------------------------|

|---|
|---|
|---|
|-0-|
|---|

Thanks, please rate it after you learn it.
Comments