Disturbed - Mistress Chords & Tabs

 

Mistress Chords & Tabs

Disturbed Chords & Tabs

Version: 3 Type: Tab 0 ratings
1 star 2 stars 3 stars 4 stars 5 stars
comments

Mistress Tab

   
Tuning:  c g c f a d
[ Tab from: http://www.guitartabs.cc/tabs/d/disturbed/mistress_tab_ver_3.html ]
D---------------------------------------|
A---------------------------------------|
F------333------------------------------|  
C--11--333---4444-66-4------------------|
G--11--------4444-66-4------------------|
C--11--------4444-66-4------------------|

D---------------------------------------|
A---------------------------------------|
F------333------------------------------|  
C--11--333---4444-66-2------------------|
G--11--------4444-66-2------------------|
C--11--------4444-66-2------------------|
Repeat this 8 x's for intro.	


~NC~
Comments