Disturbed - Meaning Of Life Chords & Tabs

 

Meaning Of Life Chords & Tabs

Disturbed Chords & Tabs

Version: 1 Type: Bass Tab 0 ratings
1 star 2 stars 3 stars 4 stars 5 stars
comments

Meaning Of Life Bass Tab

Band- Disturbed
Album- The Sickness
Song- Meaning Of Life
Tuning- Down 1/2 Step

|------------------------|
|------------------------|
|------------------------|
|-0-0---0-0---0----------|

Intro
|------------------------------------------------------------------------|
|------------------------------------------------------------------------|
|------------------------------------------------------------------------|
|-1-0-0-0--0-0-0-0--0-0-0--0-0-0-0--0-0-0-3--5--1-0-0-0--0-0-0-0--0-0-0--|
[ Tab from: http://www.guitartabs.cc/tabs/d/disturbed/meaning_of_life_btab.html ]
Chorus
|------------------------------------------------|
|------------------------------------------------|
|------------------------------------------------|
|-1-0-x-1--3-4--0-1-0-1-0--0-1---0-1-0--0-1-3----|

Bridge
|--------------------------------------------------------|
|-----------------------------3--------------------------|
|---------------------------1----------------------------|
|-0-0--0-0--0-0-0--0-0--0-0-----1-0-0-0--0-0-0-0--0-0-0--|

|------------------------------------------------------------------|
|------------------------------------------------------------------|
|------------------------------------------------------------------|
|-0-0-0-0--0-0-0-0--0-0-0--1-0-0-0--0-0-0-0--0-0-0--1-0-x-1--3-4---|

Cool song. Hope you enjoy it!!!!!!
Comments