Disturbed - Intoxication Chords & Tabs

 

Intoxication Chords & Tabs

Disturbed Chords & Tabs

Version: 1 Type: Bass Tab 0 ratings
1 star 2 stars 3 stars 4 stars 5 stars
comments

Intoxication Bass Tab

   
Tuning-Bb, Db, Ab, Db, Gb

Intro
Gb---------------------------------------------------------|
Db---------------------------------------------------------|  x4
Ab---------------------------------------------------------|
Db-6-5-2--2-5-3-2-2--5-3-5-2--6-5-2--2-5-3-2-2--3-2-3-0-3--|
Bb---------------------------------------------------------|

Verse
Gb---------------------------------------------------------|
Db---------------------------------------------------------|  x4
Ab---------------------------------------------------------|
Db-6-5-2--2-5-3-2-2--5-3-5-2--6-5-2--2-5-3-2-2--3-2-3-0-3--|
Bb---------------------------------------------------------|

Gb---------------------------------------|
Db---------------------------------------|
Ab---------------------------------------|
Db-2---2/3--3--3-3/7--2---2/3--3--3-0-0--|
Bb---------------------------------------|

Gb---------------------------------------------|
Db---------------------------------------------|
Ab---------------------------------------------|
Db-2---2/3--3--3-3/7--10--10--10-5--5--5-5--5--|
Bb---------------------------------------------|

Gb---------------------------------------|
Db---------------------------------------|
Ab---------------------------------------|
Db-2---2/3--3--3-3/7--2---2/3--3--3-0-0--|
Bb---------------------------------------|

Gb---------------------------------------------|
Db---------------------------------------------|
Ab---------------------------------------------|
Db-2---2/3--3--3-3/7--10--10--10-5--5--5-5--5--|
Bb---------------------------------------------|

Chorus
Gb------------------------------------------------------------|
Db--------------------------------------------------3----5----|
Ab-------3----3---3/5--3--------2--------2-0--3--3-----3---3--|
Db-3--3-----3---3---------2--2-----2-2-2----------------------|
Bb------------------------------------------------------------|

Gb---------------------------------------------------------------|
Db-------5-----3-------------------------------------------------|
Ab----5----------------------3----3---3/5-3--------2--------2----|
Db-5--------5-----5-5--3--3-----3---3--------2--2-----2-2-2---2--|
Bb---------------------------------------------------------------|

Gb------------------------|
Db------------------------|
Ab------------------------|
Db-0--0-0-0-0-0--0-0-0-0--|
Bb------------------------|

Gb----------------------------|
Db----------5--5--7-5---------|
Ab--------5-----------7-5-----|
Db-5--5-5-----------------3~--|
Bb----------------------------|

Gb---------------------------------------------------------|
Db---------------------------------------------------------|  x2
Ab---------------------------------------------------------|
Db-6-5-2--2-5-3-2-2--5-3-5-2--6-5-2--2-5-3-2-2--3-2-3-0-3--|
Bb---------------------------------------------------------|

Verse
Gb---------------------------------------------------------|
Db---------------------------------------------------------|  x4
Ab---------------------------------------------------------|
Db-6-5-2--2-5-3-2-2--5-3-5-2--6-5-2--2-5-3-2-2--3-2-3-0-3--|
Bb---------------------------------------------------------|

Gb---------------------------------------|
Db---------------------------------------|
Ab---------------------------------------|
Db-2---2/3--3--3-3/7--2---2/3--3--3-0-0--|
Bb---------------------------------------|
[ Tab from: http://www.guitartabs.cc/tabs/d/disturbed/intoxication_btab.html ]
Gb---------------------------------------------|
Db---------------------------------------------|
Ab---------------------------------------------|
Db-2---2/3--3--3-3/7--10--10--10-5--5--5-5--5--|
Bb---------------------------------------------|

Gb---------------------------------------|
Db---------------------------------------|
Ab---------------------------------------|
Db-2---2/3--3--3-3/7--2---2/3--3--3-0-0--|
Bb---------------------------------------|

Gb---------------------------------------------|
Db---------------------------------------------|
Ab---------------------------------------------|
Db-2---2/3--3--3-3/7--10--10--10-5--5--5-5--5--|
Bb---------------------------------------------|

Chorus
Gb------------------------------------------------------------|
Db--------------------------------------------------3----5----|
Ab-------3----3---3/5--3--------2--------2-0--3--3-----3---3--|
Db-3--3-----3---3---------2--2-----2-2-2----------------------|
Bb------------------------------------------------------------|

Gb---------------------------------------------------------------|
Db-------5-----3-------------------------------------------------|
Ab----5----------------------3----3---3/5-3--------2--------2----|
Db-5--------5-----5-5--3--3-----3---3--------2--2-----2-2-2---2--|
Bb---------------------------------------------------------------|

Gb------------------------|
Db------------------------|
Ab------------------------|
Db-0--0-0-0-0-0--0-0-0-0--|
Bb------------------------|

Gb---------------------------|
Db---------------------------|
Ab------5-5----5----5-5------|
Db-5--5-----5-----5-----5-5--|
Bb---------------------------|

Gb-------------------------------------------------------------------|
Db-------------------------------------------------------------------|
Ab-------3----3---3/5--3--------2--------2---------------------------|
Db-3--3-----3---3---------2--2-----2-2-2---2--0--0-0-0-0-0--0-0-0-0--|
Bb-------------------------------------------------------------------|

Gb------------------------------------------------------------------|
Db----------5--5--7-5-----------------------------------------------|
Ab--------5-----------7-5-------3----3---3/5-3--------2--------2----|
Db-5--5-5-----------------3--3-----3---3--------2--2-----2-2-2---2--|
Bb------------------------------------------------------------------|

Gb------------------------|
Db------------------------|
Ab------------------------|
Db-0--0-0-0-0-0--0-0-0-0--|
Bb------------------------|

Gb----------------------------|
Db----------5--5--7-5---------|
Ab--------5-----------7-5-----|
Db-5--5-5-----------------3~--|
Bb----------------------------|

Interlude
Gb-------------------------------------------------|
Db-------------------------------------------------|  x2
Ab-------------------------------------------------|
Db-2-2-X-X-X-2-2-X-X-X-X-X-2-2-X-X-X-2-2-X-X-X--X--|
Bb-------------------------------------------------|

Outro
Gb--------------------------------------------------|
Db--------------------------------------------------|
Ab--------------------------------------------------|
Db-6/5-2-X-X-X-2-2-X-X-X-X-X-2-2-X-X-X-2-2-X-X-X--X-|
Bb--------------------------------------------------|

Gb-------------------------------------------------|
Db-------------------------------------------------|
Ab-------------------------------------------------|
Db-6/5-2-X-X-X-2-2-X-X-X-X-X-2-2-X-X-X-2-2-X-X-X---|
Bb-------------------------------------------------|

Thanks, please rate it after you learn it.
Comments