Disturbed - Im Alive Chords & Tabs

 

Im Alive Chords & Tabs

Disturbed Chords & Tabs

Version: 1 Type: Tab 0 ratings
1 star 2 stars 3 stars 4 stars 5 stars
comments

Im Alive Tab

Band- Disturbed
Song- I'm Alive
Album- Ten Thousand Fists
Tuning- Drop C

Intro
|-----------------------------------------------------------|
|-----------------------------------------------------------|
|-----------------------------------------------------------|
|-4-4-4-5-4-4-5-4-4-7h9---4-4-4-5-4-4-5-4-4-7h9-0-7h9-0-7h9-|
|-4-4-4-5-4-4-5-4-4-7h9---4-4-4-5-4-4-5-4-4-7h9-0-7h9-0-7h9-|
|-4-4-4-5-4-4-5-4-4-7h9---4-4-4-5-4-4-5-4-4-7h9-0-7h9-0-7h9-|
P.M.                                            .     .

|------------------------------------------------------|
|------------------------------------------------------|
|------------------------------------------------------|
|-4-4-4-5-4-4-5-4-4-7h9-0-7h9-1-1-1-3-2-1-1--1-1-3-2-1-|
|-4-4-4-5-4-4-5-4-4-7h9-0-7h9-1-1-1-3-2-1-1--1-1-3-2-1-|
|-4-4-4-5-4-4-5-4-4-7h9-0-7h9-1-1-1-3-2-1-1--1-1-3-2-1-|
P.M.                    .

Verse
|--------------------------|--------------------------|
|-----------------x3-------|--------------------------|
|--------------------------|--------------------------|
|-4-4-4--4-5-5-5-----9-7-9-|-1-1-1-3-2-1-1--1-1-3-2-1-|
|-4-4-4--4-5-5-5-----9-7-9-|-1-1-1-3-2-1-1--1-1-3-2-1-|
|-4-4-4--4-5-5-5-----9-7-9-|-1-1-1-3-2-1-1--1-1-3-2-1-|
P.M....  .......     .....

|-------------------------------|--------------------------|
|-------------------x3----------|--------------------------|
|-------------------------------|--------------------------|
|-4-4-4--4-5-5-5-4-5-5-5--9-7-9-|-1-1-1-3-2-1-1--1-1-3-2-1-|
|-4-4-4--4-5-5-5-4-5-5-5--9-7-9-|-1-1-1-3-2-1-1--1-1-3-2-1-|
|-4-4-4--4-5-5-5-4-5-5-5--9-7-9-|-1-1-1-3-2-1-1--1-1-3-2-1-|
[ Tab from: http://www.guitartabs.cc/tabs/d/disturbed/im_alive_tab.html ]
Pre-Chorus
|-------------------------------------------|
|-------------------------------------------|
|-6-6-6-6--11-11-11-11-4-4-4-4--------------|
|-4-4-4-4--9--9--9--9--2-2-2-2--12-12-12-12-|
|-4-4-4-4--9--9--9--9--2-2-2-2--12-12-12-12-|
|-4-4-4-4--9--9--9--9--2-2-2-2--12-12-12-12-|(Not exact strumming pattern)

|---------------------------------------|
|---------------------------------------|
|-6-6-6-6--11-11-11-11-4-4-4-4--7-7-7-7-|
|-4-4-4-4--9--9--9--9--2-2-2-2--x-x-x-x-|
|-4-4-4-4--9--9--9--9--2-2-2-2--5-5-5-5-|
|-4-4-4-4--9--9--9--9--2-2-2-2----------|

|-------------------------|
|-------------------------|
|-------------------------|
|-5-5-5--5-5-5-5--5-5-5-5-|
|-5-5-5--5-5-5-5--5-5-5-5-|
|-5-5-5--5-5-5-5--5-5-5-5-|
P.M....  .......  .......

Chorus
|---------------------------|
|---------------------------|
|---------------------------|
|-4--0--2-x-x-x-4--0--2-4-5-|
|-4--0--2-x-x-x-4--0--2-4-5-|
|-4--0--2-x-x-x-4--0--2-4-5-|

Play Verse

Play Pre-Chorus

Bridge
|-------------------------------------------------|
|-------------------------------------------------|
|-------------------------------------------------|
|-0-7-0-7-6-0-7-0-7-9-0-7-0-7-6-3-3-3-------------|
|-0-7-0-7-6-0-7-0-7-9-0-7-0-7-6-3-3-3-------------|
|-0-7-0-7-6-0-7-0-7-9-0-7-0-7-6-3-3-3-4-6-7-6-4-2-|
P.M.                                  ...........

Play Intro

Play Pre-Chorus

Ending
|---------------------------------------|
|---------------------------------------|
|---------------------------------------|
|-5p3-3p2-3h5-4--0--2-x-x-x-4--0--2-5-7-|
|-5p3-3p2-3h5-4--0--2-x-x-x-4--0--2-5-7-|
|-5p3-3p2-3h5-4--0--2-x-x-x-4--0--2-5-7-|

End On
|--------------|
|--------------|
|--------------|
|-4~~~~~~~~~~~-|
|-4~~~~~~~~~~~-|
|-4~~~~~~~~~~~-|

Next up,Sacred Lie.Enjoy!
Comments