Disturbed - Hell Chords & Tabs

 

Hell Chords & Tabs

Disturbed Chords & Tabs

Version: 1 Type: Tab 0 ratings
1 star 2 stars 3 stars 4 stars 5 stars
comments

Hell Tab

   
Hell
Disturbed
Stricken (single

Tuning:- Drop Db (DbAbDbGbBbEb)

Intro

Hell
Disturbed
Stricken (single)

Tuning Drop Db (DbAbDbGbBbEb)
[ Tab from: http://www.guitartabs.cc/tabs/d/disturbed/hell_tab.html ]
Intro
                                                            
Eb|------------------------|------------------------|           
Bb|------------------------|------------------------| 
Gb|------------------------|------------------------|
Db|-5-6-7-------7-7---5-8-7|-5-8-7-------7-7---7-8-7|
Ab|-3-6-5-0-0-0-5-5-0-3-6-5|-3-6-5-0-0-0-5-5---5-6-5|
Db|-------0-0-0-----0------|-------0-0-0-----0------|
          x x x     x              x x x     x

Eb|-------------------------|---------------------------------|
Bb|-------------------------|---------------------------------|
Gb|-------------------------|---------------------------------|
Db|-7-10-9-------9-9---8----|-10----10-----10-----12-----12-12|
Ab|-5--8-7-0-0-0-7-7-0-7-0-0|--8-0-0-8-0-0--8-0-0-10-0-0-10-10|
Db|--------0-0-0-----0---0-0|----0-0---0-0----0-0----0-0------|
        x x x     x   x x     x x   x x    x x    x x

Eb|---|
Bb|---|
Gb|---|
Db|---|
Ab|-0-|
Db|-0-|

I'm trying to tab the rest of the song but it's hard.. stay tuned..
Comments