Disturbed - God Of The Mind Chords & Tabs

 

God Of The Mind Chords & Tabs

Disturbed Chords & Tabs

Version: 2 Type: Tab 0 ratings
1 star 2 stars 3 stars 4 stars 5 stars
comments

God Of The Mind Tab

   
Band: Disturbed
Song: God Of The Mind
Tabbed By StAtiCx789@aol.com

   Intro
Eb :-----------------------|
Bb :-----------------------|
Gb :------------------3-3-3|
Db :3-5-3-6-3-5-3-6-3-3-3-3|
Ab :3-5-3-6-3-5-3-6-3-1-1-1|
Db :3-5-3-6-3-5-3-6-3------|

   Pre-Verse
Eb :----------------|
Bb :----------------|
Gb :----------------|
Db :0---------------|
Ab :0---------------|
Db :0---------------|
[ Tab from: http://www.guitartabs.cc/tabs/d/disturbed/god_of_the_mind_tab_ver_2.html ]
   Verses (Palm Muted)
Eb :---------------------|---------------------|
Bb :---------------------|---------------------|
Gb :---------------------|---------------------|
Db :---------------------|---------------------|
Ab :3-5-3-5-3-5-3-5-3-5-3|-5-3-5-3-5-3-5-3-5-6-|
Db :---------------------|---------------------|
                                             | (Distorted)
   Pre-Chorus
Eb :-------------------------------|
Bb :-------------------------------|
Gb :-------------------------------|
Db :0-0-0-3-3-3-0-0-0-3-3-3-0-0-3-3|
Ab :-------------------------------|
Db :-------------------------------|

   Chorus
Eb :----------------|
Bb :----------------|
Gb :----------------|
Db :0--3--0--3--0-3-|
Ab :0--3--0--3--0-3-|
Db :0--3--0--3--0-3-|

   Interlude
Eb :--------------5-|-----------------|
Bb :----------------|--------------3^-|
Gb :----------------|-----------------|
Db :6-xxxx6-xxxxxx--|6-xxxx6-xxxxxx---|
Ab :6-xxxx6-xxxxxx--|6-xxxx6-xxxxxx---|
Db :6-xxxx6-xxxxxx--|6-xxxx6-xxxxxx---|

   Outro
Eb :-------------------------------|
Bb :-------------------------------|
Gb :-------------------------------|
Db :0-0-0-3-3-3-0-0-0-3-3-3-0-0-3-3|
Ab :0-0-0-3-3-3-0-0-0-3-3-3-0-0-3-3|
Db :0-0-0-3-3-3-0-0-0-3-3-3-0-0-3-3|

Get TabIt at:
http://www.tabit.net
"The greatest program I've ever owned"
Comments