Disturbed - God Of Mind Chords & Tabs

 

God Of Mind Chords & Tabs

Disturbed Chords & Tabs

Version: 1 Type: Bass Tab 0 ratings
1 star 2 stars 3 stars 4 stars 5 stars
comments

God Of Mind Bass Tab

Song: God of the Mind
Band: Disturbed
CD: Return of the Rock Vol. 2
Tabbed by Ben Hoffmann
Forumboarder@cs.com
    
This song is pretty easy, your just really have to listen for timing. 
The guy playing has a 5 string. If you dont have a 5 string, that sucks. 
Because you have to tune down to a low A.

All 3 Intro/verse repeat 2x
G:-----------------------------------------
D:-----------------------------------------
A:--0-2-2-3-0-2-2-3-3/--5/--5/--7----------
A:-----------------------------------------
[ Tab from: http://www.guitartabs.cc/tabs/d/disturbed/god_of_mind_btab.html ]
Chorus/bridge
G:-----------------------------------------
D:-----------------------------------------
A:--24--24--2-4--24--24-2------------------
A:-----------------------------------------

G:-----------------------------------------
D:-----------------------------------------
A:--4--24--24--24--24--5-------------------
A:-----------------------------------------

G:-----------------------------------------
D:-----------------------------------------
A:-2-4--2-4--2-4--2-4--4--5----------------
A:-----------------------------------------
Comments