Disturbed - Forgiven Chords & Tabs

 

Forgiven Chords & Tabs

Disturbed Chords & Tabs

Version: 2 Type: Tab 0 ratings
1 star 2 stars 3 stars 4 stars 5 stars
comments

Forgiven Tab

Band- Disturbed
Song- Forgiven
Album- Ten Thousand Fists
Tuning- Drop C

This sounds pretty good to me,might be a little off right before he goes into the really
fast part.I'm making it seperate from my full tab so I can make corrections then when I
think it's perfect add it on to my full tab.

Solo/Wah Pedal
|------------------------------------------------------|
|------------------------------------------------------|
|---------------------------7^-7-5-------7^-7-5--------|
|-7-5-7-5-7-7-5-7-5-7-7-5-7--------7-5-7--------5-7-7--|
|------------------------------------------------------|
|------------------------------------------------------|

|-----------------------------------------|
|-----------------------------------------|
|-----------------------------------------|
|-7-5-7-7-5-7-5/3-------2/4-4/6-6/7-9-5h7-|
|-----------------3\5-3-------------------|
|-----------------------------------------|
[ Tab from: http://www.guitartabs.cc/tabs/d/disturbed/forgiven_tab_ver_2.html ]
|----------------------------------------------------------------------|
|----------------------------------------------------------------------|
|-------12--------------------------12^--12-10----12-14-12----12-10----|
|-12-14----14-12--------------12-14------------12----------12-------12-|
|----------------14--14-12-14------------------------------------------|
|----------------------------------------------------------------------|

|-----------------------------13-15-|
|-------------17^-17-15-13-10-------|
|-15-17-15-17-----------------------|
|-----------------------------------|
|-----------------------------------|
|-----------------------------------|

|-17p15p13-19p17p13-17p15p13-19p17p13-17p15p13-19p17p13-17p15p13-12~-|
|--------------------------------------------------------------------|
|--------------------------------------------------------------------|
|--------------------------------------------------------------------|
|--------------------------------------------------------------------|
|--------------------------------------------------------------------|

I'm trying to fix and figure out the solos for Land Of Confusion and Avarice so stay tuned!
Comments