Disturbed - Droppin Plates Chords & Tabs

 

Droppin Plates Chords & Tabs

Disturbed Chords & Tabs

Version: 4 Type: Tab 0 ratings
1 star 2 stars 3 stars 4 stars 5 stars
comments

Droppin Plates Tab

this is wut i got...

() = pm     b = bend


INTRO (7TIMES)

E-----------------------------------|
B-----------------------------------|
G-----------------------------------|
D--0--(2--0-2-0)-7-5-(2--0-2-0)-5-7-|
A--0--(2--0-2-0)-7-5-(2--0-2-0)-5-7-|
D--0--(2--0-2-0)-7-5-(2--0-2-0)-5-7-|

INTRO...last part
[ Tab from: http://www.guitartabs.cc/tabs/d/disturbed/droppin_plates_tab_ver_4.html ]
E------------------------------5b6-6-6-6-6-6-6-6-6-|
B--------------------------------------------------|
G--------------------------------------------------|
D--0--(2--0-2-0)-7-5-(2--0-2-0)--------------------|
A--0--(2--0-2-0)-7-5-(2--0-2-0)--------------------|
D--0--(2--0-2-0)-7-5-(2--0-2-0)--------------------|

VERSE 1 (2TIMES)

E---------------------------------|
B---------------------------------|
G---------------------------------|
D--6--4---9-12-4--6--4--2--2-5--5-|
A--6--4---9-12-4--6--4--2--2-5--5-|
D--6--4---9-12-4--6--4--2--2-5--5-|

CHORUS (4TIMES)

E--------------------|
B--------------------|
G--------------------|
D--2-0-5-2-(2-0-2-0)-|
A--2-0-5-2-(2-0-2-0)-|
D--2-0-5-2-(2-0-2-0)-|


srry i dont have verse 2 and that otha part 4 ya...and i lost my cycle of fifths that ma 
gave 2 me like a year and a half a go lol
my bad...please forgive me
its probably pretty close tho..i think so

later
Comments