Disturbed - Down With The Sickness Chords & Tabs

 

Down With The Sickness Chords & Tabs

Disturbed Chords & Tabs

Version: 2 Type: Tab 5 ratings
1 star 2 stars 3 stars 4 stars 5 stars
comments

Down With The Sickness Tab

   
 Disturbed / Down With The Sickness
 DOWN

 Db|-----------------------------------------|    |---------------------------
 Ab|-7-10-7-8-7--%--7-10-7-8-7--%--7-10-7-8--|then|-7-10-7-8-7--%--7-10-7-8-7-
 Db|-----------------------------------------|    |---------------------------
 EW AH AH AH AH!!!
                                       3x
 Db|-------------------------------------|  |-----------------------------------
 Ab|-2-5-2-3-2--%--2-5-2-3-2--%--2-5-2-3-|  |-2-5-2-3-2--%--2-5-2-3-2--%--2-3-33
 Db|-2-5-2-3-2-----2-5-2-3-2-----2-5-2-3-|  |-2-5-2-3-2-----2-5-2-3-2-----2-3-33

                                       3x        
 Db|-------------------------------------|  |-----------------------------------
 Ab|-2-5-2-3-2--%--2-5-2-3-2--%--2-5-2-3-|  |-2-5-2-3-2--%--2-5-3-3-3-3-3-3-3-3-
 Db|-2-5-2-3-2-----2-5-2-3-2-----2-5-2-3-|  |-2-5-2-3-2-----2-5-3-3-3-3-3-3-3-3-
verses

N.H..
 Gb|-------------------------------------|    |-------------------------------5-
 Db|-------------------------------------|    |-------------------------------5-
 Ab|-2-2-2-2-2--%--2-2-2-2-2--%--2-2-2-2-| 3x |-2-2-2-2-2--%--2-2-2-2-2--%--3-3
 Db|-2-2-2-2-2-----2-2-2-2-2-----2-2-2-2-|    |-2-2-2-2-2-----2-2-2-2-2-----3-3-
pre-chorus
                                                                               N.H..
 Gb|-------------------------------------|    |-------------------------------5-
 Db|-------------------------------------|    |-------------------------------5-
 Ab|-2-5-2-3-2--%--2-2-2-2-2--%--2-2-2-2-| 3x |-2-5-2-3-2--%--2-2-2-2-2--%--2-3-
 Db|-2-5-2-3-2-----2-2-2-2-2-----2-2-2-2-|    |-2-5-2-3-2-----2-2-2-2-2-----2-3-
chorus

 Eb|---------------------------------------|------------------------------------
 Bb|----------------5--5-------------------|----------------5-------------------
 Gb|---------------------------------------|-------------------5----------------
 Db|-------------%------------%---------%--|-------------%-----------%----------
 Ab|-2----2-3-2------------2-----2-3-2-----|-2----2-3-2-----------2-----2-3-2---
 Db|-2----2-3-2------------2-----2-3-2-----|-2----2-3-2-----------2-----2-3-2---
[ Tab from: http://www.guitartabs.cc/tabs/d/disturbed/down_with_the_sickness_tab_ver_2.html ]
 Eb|---------------------------------------|------------------------------------
 Bb|----------------5--5-------------------|----------------5-------------------
 Gb|---------------------------------------|-------------------5----------------
 Db|-------------%------------%---------%--|-------------%----------------------
 Ab|-2----2-3-2------------2-----2-3-2-----|-2----2-3-2-----------2-------------
 Db|-2----2-3-2------------2-----2-3-2-----|-2----2-3-2-----------2---/19-v~~~~

 after u repeat this let the last note ring out like this
Db|--------------|------------------------------|
Ab|-2------------|------------------------------|
 Db|-2------------|-----------/17-\(long slide)--|

 ont the 2nd chorus dont let the note ring out; instead go into the Bridge here

                                                                              
 

 Db|--------------------------------------|------------------------------------
  Ab|---------------2/3--------4----4/7-v~~|~~~~~~--X-X-3/4------3----X-X-------
  Db|-4-v~~~~--X-X-------------------------|-------------------------------2----

 Gb|---------------------------------------|------------------------------------
 Db|---------------------------------------|-------------6-------5----X-X-------
 Ab|---------------2/3---------4----4/7-v~~|~~~~~~--X-X--4---%---3----X-X--2----
 Db|-4-v~~~~~--X-X-------------------------|-------------------------------2----
                                                                           8x  
 Gb|------------------------------------6----|-------------------------------|
 Db|---------------5---------6----------4----|---------------5---------6-----|
 Ab|-4--------X-X--3---------4-----X-X-------|-4--------X-X--3---------4-----|
 Db|-4--------X-X------------------X-X-------|-4--------X-X------------------|

 interlude
 Db|--------------------------------------------|  |----------------------------
 Ab|-9-12-9-10-9--%--9-12-9-10-9--%--9-12-9-10--|  |-9-12-9-10-9--%--9-12-9-10--    Db|--------------------------------------------|  |-----------------------------

 Outro
 Db|-------------------------------|
 Ab|-4-7-4-5-4--4-7-4-5-4--4-7-4-5-| repeat this riff like a million times
 Db|-4-7-4-5-4--4-7-4-5-4--4-7-4-5-|



Comments