Disturbed - Down With The Sickness Chords & Tabs

 

Down With The Sickness Chords & Tabs

Disturbed Chords & Tabs

Version: 14 Type: Tab 0 ratings
1 star 2 stars 3 stars 4 stars 5 stars
comments

Down With The Sickness Tab

   
Tuning: Drop D (D A D G B e)
Heavy Distortion

* natural harmonic (located over tab)
h hammer on (located after tab)
^ vibrato  (located before tab)
/ slide  (located between tabs)
x mute note

Intro Riff:(palm mute this section)
D-------------------------------------|
A--7-10-7-8-7---7-10-7-8-7---7-10-8-7-|
D-------------------------------------| (Repeat 4x)
G-------------------------------------|
B-------------------------------------|
e-------------------------------------|

D--2h5-2h3-2---2h5-2h3-2---2h5-2h3---|
A--2---2---2---2---2---2---2---2-----|
D------------------------------------| (Repeat 3x)
G------------------------------------|
B------------------------------------|
e------------------------------------|

D--2h5-2h3-2---2h5-2h3-2---2333------|
A--2---2---2---2---2---2---2333------|
D------------------------------------|
G------------------------------------|
B------------------------------------|
e------------------------------------|

D--2h5-2h3-2---2h5-2h3-2---2h5-2h3---|
A--2---2---2---2---2---2---2---2-----|
D------------------------------------| (Repeat 3x)
G------------------------------------|
B------------------------------------|
e------------------------------------|

D--2h5-2h3-2---2h533333333-----------|
A--2---2---2---2---------------------|
D------------------------------------|
G------------------------------------|
B------------------------------------|
e------------------------------------|

Verse Riff
D--22222---22222---2222--------------|
A--22222---22222---2222--------------|
D--22222---22222---2222--------------| (Repeat 3x)
G------------------------------------|
B------------------------------------|
e------------------------------------|

                     **
D--22222---22222---23----------------|
A--22222---22222---23----------------|
D--22222---22222---235---------------|
G---------------------5--------------|
B------------------------------------|
e------------------------------------|

D--22222---22222---2222--------------|
A--22222---22222---2222--------------|
D--22222---22222---2222--------------| (Repeat 3x)
G------------------------------------|
B------------------------------------|
e------------------------------------|

D--22222---22222---2333--------------|
A--22222---22222---2333--------------|
D--22222---22222---2333--------------|
G------------------------------------|
B------------------------------------|
e------------------------------------|

D--2h5-2h3-2---22222-2222------------|
A------------------------------------|
D------------------------------------| (Repeat 3x)
G------------------------------------|
B------------------------------------|
e------------------------------------|

                         **
D--2h5-2h3-2---22222---23------------|
A------------------------------------|
D------------------------5-----------|
G-------------------------5----------|
B------------------------------------|
e------------------------------------|

D--2h5-2h3-2---22222-2222------------|
A------------------------------------|
D------------------------------------| (Repeat 3x)
G------------------------------------|
B------------------------------------|
e------------------------------------|

D--2h5-2h3-2---22222-2333------------|
A------------------------------------|
D------------------------------------|
G------------------------------------|
B------------------------------------|
e------------------------------------|

Chorus Riff
          **                    **
D--2---232-----2---232---2---232-----2---232-|
A--2---232-----2---232---2---232-----2---232-|
D--2---232-----2---232---2---232-----2---232-| (Repeat 3x)
G--------------------------------5-----------|
B---------55--------------------5------------|
e--------------------------------------------|
[ Tab from: http://www.guitartabs.cc/tabs/d/disturbed/down_with_the_sickness_tab_ver_14.html ]
         **
D--2--232----------------------------|
A--2--232----------------------------|
D--2--232----------------------------|
G---------5--------------------------|
B--------5----^12--------------------|
e------------------------------------|

         **                    **
D--2--232-----2---232---2---232-----2---232-|
A--2--232-----2---232---2---232-----2---232-|
D--2--232-----2---232---2---232-----2---232-| (Repeat 4x)
G-------------------------------5-----------|
B--------55--------------------5------------|
e-------------------------------------------|

D--2------------------------------------/17-|
A--2----------------------------------------|
D--2----------------------------------------|
G-------------------------------------------|
B-------------------------------------------|
e-------------------------------------------|

Bridge Riff
D-^4xx---10---11---11/^14xx---11---10xx2---|
A------------------------------------------|
D------------------------------------------| (Repeat 3x)
G------------------------------------------|
B------------------------------------------|
e------------------------------------------|

D-^4xx---10---11---11/^14xx---11---10xx2---|
A-----------------------------11---10xx2---|
D------------------------------------------|
G------------------------------------------|
B------------------------------------------|
e------------------------------------------|

D--4xx---10---11xx---4---4xx---10---11-----|
A--4xx---10---11xx---4---4xx---10---11-----|
D--4xx---10---11xx---4---4xx---10---11-----| (Repeat 4x)
G------------------------------------------|
B------------------------------------------|
e------------------------------------------|

D--4xx---10---11---------------------|
A--4xx---10---11---------------------|
D--4xx---10---11---------------------| (Repeat 2x)
G------------------------------------|
B------------------------------------|
e------------------------------------|

D--4xx---10---11xx---4---------------|
A--4xx---10---11xx---4---------------|
D--4xx---10---11xx---4---------------| (Repeat 3x)
G------------------------------------|
B------------------------------------|
e------------------------------------|

D--4xx---10---11---------------------|
A--4xx---10---11---------------------|
D--4xx---10---11---------------------| (Repeat 2x)
G------------------------------------|
B------------------------------------|
e------------------------------------|

Outro Riff: (palm mute this section)
D------------------------------------------|
A--9-12-9-10-9---9-12-9-10-9---9-12-9-10---|
D------------------------------------------|
G------------------------------------------|
B------------------------------------------|
e------------------------------------------|

(palm mute this section)
D------------------------------------|
A--9-12-9-10-9---9-12-9-10-9---------|
D------------------------------------|
G------------------------------------|
B------------------------------------|
e------------------------------------|

D--4h7-4h5-4---4h7-4h5-4---4h7-4h5---|
A--4---4---4---4---4---4---4---4-----|
D------------------------------------| (Repeat 3x)
G------------------------------------|
B------------------------------------|
e------------------------------------|

D--4h7-4h5-4---4h7-4h5-4-4-4---------|
A--4---4---4---4---4---4-7-7---------|
D------------------------------------|
G------------------------------------|
B------------------------------------|
e------------------------------------|

D--4h7-4h5-4---4h7-4h5-4---4h7-4h5---|
A--4---4---4---4---4---4---4---4-----|
D------------------------------------| (Repeat 3x)
G------------------------------------|
B------------------------------------|
e------------------------------------|

D--4h7-4h5-4---4h7-4h5-4-------------|
A--4---4---4---4---4---4-------------|
D------------------------------------|
G------------------------------------|
B------------------------------------|
e------------------------------------|

This took me hours to tab out so you better like it! LOL, jk.  Have fun and I hope to 
one of your cd's one day cuz if you can play this, you can do anything.  (Just for added 
play it with the cd. It sounds real cool when you can play a bomb ass song like this in
direct timing with the actual song!)
Comments