Disturbed - Down With The Sickness Chords & Tabs

 

Down With The Sickness Chords & Tabs

Disturbed Chords & Tabs

Version: 2 Type: Bass Tab 0 ratings
1 star 2 stars 3 stars 4 stars 5 stars
comments

Down With The Sickness Bass Tab

Band- Disturbed
Album- The Sickness
Song- Down With The Sickness
Tuning- Drop D

Intro
|-----------------------------|----------------|
|----------------------x7-----|----------------|
|-----------------------------|----------------|
|-2-2--2-2--2-2--2-2--2-2-2-2-|-2-2--2-2--2-2--|

|-------------------------------|----------------------------------|
|----------------x7-------------|----------------------------------|
|-------------------------------|----------------------------------|
|-2-5-2-3-2--2-5-2-3-2--2-5-2-3-|-2-5-2-3-2--2-5-2-3-3-3-3-3-3-3-3-|

Verse
|---------------------------------------------------------------|
|---------------------------------------------------------------|
|---------------------------------------------------------------|
|-2-2-2-2-2--2-2-2-2-2--2-2-2-2--2-2-2-2-2--2-2-2-2-2--2-3-3-3--|
[ Tab from: http://www.guitartabs.cc/tabs/d/disturbed/down_with_the_sickness_btab_ver_2.html ]
|---------------------------------------------------------------------------------------------|
|---------------------------------------------------------------------------------------------|
|---------------------------------------------------------------------------------------------|
|-2-5-2-3-2--2-2-2-2-2--2-2-2-2--2-5-2-3-2--2-2-2-2-2--2-2-2-2--2-5-2-3-2--2-2-2-2-2--2-3-3-3-|

Chorus
|---------------------------|--------------------------|
|------------x8-------------|--------------------------|
|---------------------------|--------------------------|
|-2--2--2h3-2---2--2--2h3-2-|-4--4----4---4\2-2--2-2---|

|--------------------------------------------------|
|----------------------4---------------------------|
|------4-3-----3-4---------x-x-3-4---x-x-3-4---3-4-|
|-\2-2-----2-4-----4-4---4---------4---------4-----|

Outro
|-----------|-------------------------------|-------------------------------|
|-----------|-4-7-4-5-4--4-7-4-5-4--4-7-4-5-|-------------------------------|
|---x-x-3-4-|-------------------------------|-------------------------------|
|-4---------|-------------------------------|-4-7-4-5-4--4-7-4-5-4--4-7-4-5-|

This is the RIGHT way to play Down With The Sickness by Disturbed so ENJOY!!!!!
Comments