Disturbed - Deify Chords & Tabs

 

Deify Chords & Tabs

Disturbed Chords & Tabs

Version: 4 Type: Tab

Deify Tab

   
b=bend
h=hammer-on
p=pull-off
~=vibrato
X=chug


Now I'm seeing a lot of poepl doing this wrong and it'll be set write.

Intro:I'm seeing poeple typing up power chords for the intro and I disagree w/ that.Also 
the end of the intro there are 11's these are not 11's, they are 1's next to each other 
like the rest of the intro.
e----------------------------------------------------------------------|
B----------------------------------------------------------------------|
G----------------------------------------------------------------------|
D--88-88-88-88-3333-44-44-44-44-3366-44-44-44-44-4444-33-33-11-11-8888-|
A--88-88-88-88-3333-44-44-44-44-3366-44-44-44-44-4444-33-33-11-11-6666-|
D--88-88-88-88-3333-44-44-44-44-3366-44-44-44-44-4444-33-33-11-11-8888-|


e----------------------------------------------------------------------|
B----------------------------------------------------------------------|
G----------------------------------------------------------------------|
D--88-88-88-88-3333-44-44-44-44-3366-44-44-44-44-4444-33-33-11-11-8888-|
A--88-88-88-88-3333-44-44-44-44-3366-44-44-44-44-4444-33-33-11-11-6666-|
D--88-88-88-88-3333-44-44-44-44-3366-44-44-44-44-4444-33-33-11-11-8888-|

Bridge
e--------------------------|
B--------------------------|
G--------------------------|
D--6666-6-6-6666-6-6-6666--|
A--4444-4-4-4444-4-4-4444--|
D--6666-6-6-6666-6-6-6666--|

Verse:You can really here the bass in the verse and this is the part for it but Dan does 
same thing but he has some kinda distortion or EFX w/ it.
e----------------------------------------|
B----------------------------------------|
G----------------------------------------| X4
D----------------------------------------|
A--111111222222--------------------------|
D--------------333333111111666666444444--|

e-----------------------------------------|
B-----------------------------------------|
G-----------------------------------------| X4
D-----------------------------------------|
A--999999888888333333111111666666444444---|
D--999999888888333333111111666666444444---|

Pre-chorus
e-----------------------------|
B-----------------------------|
G-----------------------------| X4
D--4---6--4-3--4---XX-4-3--4--|
A--4---6--4-3--4---XX-4-3--4--|
D--4---6--4-3--4---XX-4-3--4--|

Chorus
e----------------------------------------------------------------------|
B----------------------------------------------------------------------|
G----------------------------------------------------------------------|
D--88-88-88-88-3333-44-44-44-44-3366-44-44-44-44-4444-33-33-11-11-8888-|
A--88-88-88-88-3333-44-44-44-44-3366-44-44-44-44-4444-33-33-11-11-6666-|
D--88-88-88-88-3333-44-44-44-44-3366-44-44-44-44-4444-33-33-11-11-8888-|


e----------------------------------------------------------------------|
B----------------------------------------------------------------------|
G----------------------------------------------------------------------|
D--88-88-88-88-3333-44-44-44-44-3366-44-44-44-44-4444-33-33-11-11-8888-|
A--88-88-88-88-3333-44-44-44-44-3366-44-44-44-44-4444-33-33-11-11-6666-|
D--88-88-88-88-3333-44-44-44-44-3366-44-44-44-44-4444-33-33-11-11-8888-|


Bridge
e--------------------------|
B--------------------------|
G--------------------------|
D--6666-6-6-6666-6-6-6666--|
A--4444-4-4-4444-4-4-4444--|
D--6666-6-6-6666-6-6-6666--|


Verse
e----------------------------------------|
B----------------------------------------|
G----------------------------------------| X4
D----------------------------------------|
A--111111222222--------------------------|
D--------------333333111111666666444444--|
[ Tab from: http://www.guitartabs.cc/tabs/d/disturbed/deify_tab_ver_4.html ]
e-----------------------------------------|
B-----------------------------------------|
G-----------------------------------------| X4
D-----------------------------------------|
A--999999888888333333111111666666444444---|
D--999999888888333333111111666666444444---|

Pre-chorus
e-----------------------------|
B-----------------------------|
G-----------------------------| X4
D--4---6--4-3--4---XX-4-3--4--|
A--4---6--4-3--4---XX-4-3--4--|
D--4---6--4-3--4---XX-4-3--4--|

Chorus
e----------------------------------------------------------------------|
B----------------------------------------------------------------------|
G----------------------------------------------------------------------|
D--88-88-88-88-3333-44-44-44-44-3366-44-44-44-44-4444-33-33-11-11-8888-|
A--88-88-88-88-3333-44-44-44-44-3366-44-44-44-44-4444-33-33-11-11-6666-|
D--88-88-88-88-3333-44-44-44-44-3366-44-44-44-44-4444-33-33-11-11-8888-|


e----------------------------------------------------------------------|
B----------------------------------------------------------------------|
G----------------------------------------------------------------------|
D--88-88-88-88-3333-44-44-44-44-3366-44-44-44-44-4444-33-33-11-11-8888-|
A--88-88-88-88-3333-44-44-44-44-3366-44-44-44-44-4444-33-33-11-11-6666-|
D--88-88-88-88-3333-44-44-44-44-3366-44-44-44-44-4444-33-33-11-11-8888-|

Bridge 2:I'm pretty sure this is how it goes and you need some wah w/ it. Do this 3 times
e------------------------------------|
B------------------------------------|
G------------------------------------| X3
D--6-8-8-8-8-8-8-9-11-9-8-8-8-8-8-8--|
A------------------------------------|
D------------------------------------|

e-------------------------------------------------|
B-------------------------------------------------|
G-------------------------------------------------|
D--8-8-8-9-11-11-11-11-15-11-15-9-12-9-9-9-15-12--|
A-------------------------------------------------|
D-------------------------------------------------|

Breakdown:Same thing as intro and chorus
e----------------------------------------------------------------------|
B----------------------------------------------------------------------|
G----------------------------------------------------------------------|
D--88-88-88-88-3333-44-44-44-44-3366-44-44-44-44-4444-33-33-11-11-8888-|
A--88-88-88-88-3333-44-44-44-44-3366-44-44-44-44-4444-33-33-11-11-6666-|
D--88-88-88-88-3333-44-44-44-44-3366-44-44-44-44-4444-33-33-11-11-8888-|

Another bridge in which the guitar does not play but the bass does add in.


Chorus
e----------------------------------------------------------------------|
B----------------------------------------------------------------------|
G----------------------------------------------------------------------|
D--88-88-88-88-3333-44-44-44-44-3366-44-44-44-44-4444-33-33-11-11-8888-|
A--88-88-88-88-3333-44-44-44-44-3366-44-44-44-44-4444-33-33-11-11-6666-|
D--88-88-88-88-3333-44-44-44-44-3366-44-44-44-44-4444-33-33-11-11-8888-|


e----------------------------------------------------------------------|
B----------------------------------------------------------------------|
G----------------------------------------------------------------------|
D--88-88-88-88-3333-44-44-44-44-3366-44-44-44-44-4444-33-33-11-11-8888-|
A--88-88-88-88-3333-44-44-44-44-3366-44-44-44-44-4444-33-33-11-11-6666-|
D--88-88-88-88-3333-44-44-44-44-3366-44-44-44-44-4444-33-33-11-11-8888-|


Outro:Same as bridge
e--------------------------|
B--------------------------|
G--------------------------|
D--6666-6-6-6666-6-6-6666--|
A--4444-4-4-4444-4-4-4444--|
D--6666-6-6-6666-6-6-6666--|

Tabbed by irishmatt1992, any suggestions, e-mail me at irishmatt1992@yahoo.com.
Thkx