Disturbed - Deify Chords & Tabs

 

Deify Chords & Tabs

Disturbed Chords & Tabs

Version: 3 Type: Tab 0 ratings
1 star 2 stars 3 stars 4 stars 5 stars
comments

Deify Tab

Artist: Disturbed
Song: Deify (well Spelled!)
Album: Ten Thousands Fists
Tuning: Drop C (CGCFAD)

Here's George W. Bush song!

**Update (June 27th 2006)** I updated the intro end and the interlude.


Intro
|------------------------------------------------------------------------|
|------------------------------------------------------------------------|
|--55-55-55-55-----------------------------------------------------------|
|--55-55-55-55--5555--33-33-33-33--1-5-33-33-33-33-3333-11-11-00-00-555--|
|--33-33-33-33--5555--33-33-33-33--1-5-33-33-33-33-3333-11-11-00-00-555--|
|---------------5555--33-33-33-33--1-5-33-33-33-33-3333-11-11-00-00-555--|

Pre-Verse
|---------------------------------------|
|---------------------------------------|
|---------------------------------------|
|---------------------------------------|
|--10-10-8-10-11-10-8-10-10-10-11-10-8--|<
|--10-10-8-10-11-10-8-10-10-10-11-10-8--|< Play these notes very fast

Verse
|---------------------------|
|---------------------------|
|---------------------------| 4x
|---------------------------|
|--3333334444---------------|
|------------5555000088886--|
PM .......................
[ Tab from: http://www.guitartabs.cc/tabs/d/disturbed/deify_tab_ver_3.html ]
then:
|---------------------------|
|---------------------------|
|--5555556666---------------| 4x
|--55555566665555000088886--|
|--33333344445555000088886--|
|------------5555000088886--|

Pre-Chorus
|----------------|
|----------------|
|----------------| 4x
|--6--8--5-6-85--|
|--6--8--5-6-85--|
|--6--8--5-6-85--|

Chorus
|------------------------------------------------------------------------|
|------------------------------------------------------------------------|
|--55-55-55-55-----------------------------------------------------------|
|--55-55-55-55--5555--33-33-33-33--1-5-33-33-33-33-3333-11-11-00-00-555--|
|--33-33-33-33--5555--33-33-33-33--1-5-33-33-33-33-3333-11-11-00-00-555--|
|---------------5555--33-33-33-33--1-5-33-33-33-33-3333-11-11-00-00-555--|

Pre-Verse

Verse

Pre-Chorus

Chorus

Interlude
|-----------------------------------------|------|
|-----------------------------------------|------|
|-----------------------------------------|------|
|-----------------------------------------|------|
|----------11p10----13p10----11----11/10--|------|
|--10101010-----1010-----1010--1010-------|--12--|
                                2nd time^

then:
|--------------------------------------|
|--------------------------------------|
|--------------------------------------|
|--------------------------------------|
|----------16p0----16--------13----13--|
|--13131313----1313--11111111--1111----|
   ^ ^ ^ ^   ^ ^   ^ ^ ^ ^   ^ ^
    this is 13       this is 11
Comments