Disturbed - Deify Chords & Tabs

 

Deify Chords & Tabs

Disturbed Chords & Tabs

Version: 1 Type: Tab 0 ratings
1 star 2 stars 3 stars 4 stars 5 stars
comments

Deify Tab

Band- Disturbed
Song- Deify
Album- Ten Thousand Fists
Tuning- Drop C

This is just a rough sketch of the intro/main riff of this song.It may not be perfect
but it still sounds pretty good.When I learn the rest of the song I'll probably post
that too.
[ Tab from: http://www.guitartabs.cc/tabs/d/disturbed/deify_tab.html ]
|----------------------------------------------------------------|
|----------------------------------------------------------------|
|----------------------------------------------------------------|
|-0-0--0-0--0-0--0-0-5-3-3--3-3--3-3--3-3-2-5-3-3--3-3--3-3--3-3-|
|-0-0--0-0--0-0--0-0-5-3-3--3-3--3-3--3-3-2-5-3-3--3-3--3-3--3-3-|
|-0-0--0-0--0-0--0-0-5-3-3--3-3--3-3--3-3-2-5-3-3--3-3--3-3--3-3-|

|-------------------|
|-------------------|
|-------------------|
|-2-2--2-2-1-1--1-1-|
|-2-2--2-2-1-1--1-1-|
|-2-2--2-2-1-1--1-1-|

That's all I got for now.Enjoy!!
Comments