Disturbed - Dehumanized Chords & Tabs

 

Dehumanized Chords & Tabs

Disturbed Chords & Tabs

Version: 1 Type: Tab 0 ratings
1 star 2 stars 3 stars 4 stars 5 stars
comments

Dehumanized Tab

   
Disturbed - Dehumanized

tune: Db Ab Db Gb Bb Eb


   intro/verse
 |-------------------------------------
 |-------------------------------------
 |-------------------------------------
 |-------------------------------------
 |----5--------5--------5-------5------
 |0000-000-8888-888-2222-222-7777-777--
PM.... ... .... ... .... ... .... ...     4x
 |-------------------------------------
 |-------------------------------------
 |-------------------------------------
 |-------------------------------------
 |----5--------5--------5--------5-6---
 |0000-000-8888-888-2222-222-7777------
PM.... ... .... ... .... ... ....
[ Tab from: http://www.guitartabs.cc/tabs/d/disturbed/dehumanized_tab.html ]
   pre-chorus
 |-------------------------------------
 |---4--------------4------------4---------------4-4-4-4-4--
 |---3--------5*----3------------3---------------3-3-3-3-3--
 |000-00-00--5*--000-00-00-00-000-00-00--5*---000--2-2-2-2--
 |000-00-00-5*---000-00-00-00-000-00-00-5*-5*-000-----------
 |000-00-00------000-00-00-00-000-00-00-------000-----------
PM... .. ..      ... .. .. .. ... .. ..       ...

    verse

   chorus
 |-------------------------------------------------- 2x
 |--------------------------------------------------
 |---------------------------5555-------------------
 |0-xxx-0-xxx-33xx-33xx-33xx-5555-5s88xx-88xx-88xx--
 |0-xxx-0-xxx-33xx-33xx-33xx-3333-5s88xx-88xx-88xx--
 |0-xxx-0-xxx-33xx-33xx-33xx------5s88xx-88xx-88xx--

 |-----------------
 |-----------------
 |-----------------
 |000-000-000-000--
 |000-000-000-000--
 |000-000-000-000--
PM... ... ... ...

   verse
   
   chorus

   bridge
 |----------------------------- 2x
 |-----------------------------
 |-------3322------------------
 |3-5-1111111-3-5-1-3-5555555--
 |3-5-1111111-3-5-1-3-5555555--
 |3-5-1111111-3-5-1-3-5555555--

   chorus 2x

   pre-chorus(last chord slide down)

That's All Enjoy
Comments