Disturbed - Darkness Chords & Tabs

 

Darkness Chords & Tabs

Disturbed Chords & Tabs

Version: 6 Type: Tab 0 ratings
1 star 2 stars 3 stars 4 stars 5 stars
comments

Darkness Tab

   
Darkness-Disturbed
Believe

Eb Ab Db Gb Bb Eb


Intro:

Fig. 1a

e-----19--17------14--14-----15-------------------
b-------------------------------------------------
g-------------------------------------------------
d-------------------------------------------------
a-------------------------------------------------
e-------------------------------------------------

Fig. 1

e-------------------------------------------------
b-------------------------------------------------
g----------------------------------------0-----0--
d-------4-----4--0-----0--------4-----4-----------
a----2-----2--------2--------2-----2--------2-----
e-0-----------------------3-----------------------

Fig. 1a (cont)

e-----19--17----14--14------15--------------------
b---------------------------------15--------------
g-------------------------------------------------
d-------------------------------------------------
a-------------------------------------------------
e-------------------------------------------------

Fig. 1 (cont)

e-------------------------------------------------
b-------------------------------------------------
g----------------------------------------0--------
d-------4-----4--0-----0--------4-----4--------0--
a----2-----2--------2--------2-----2--------2-----
e-0-----------------------3-----------------------

Verses: Fig. 1 and Fig. 1a x2

Chorus:

gtr. 1

e---------0----------------0--------------0-----------------0-------
b-----------3----------------3--------------3-----------------3-----
g-------0-----0----------------0--------0-----0-----------------0---
d---2-2-----------------------------2-2-----------------------------
a-3-------------2----0------------3-------------2----0--------------
e----------------------0-------------------------------0------------

gtr. 2
[ Tab from: http://www.guitartabs.cc/tabs/d/disturbed/darkness_tab_ver_6.html ]
e-------------------------------------------------------------------
b---------0-------------------------------0-------------------------
g-------0-----2-0----2h4-------0--------0-----2-0----2--------------
d---2/5-----------------------------2/5----------------2------------
a-3-------------------------------3---------------------------------
e-------------------------------------------------------------------

gtr. 1

e---------0----------------0--------------0----------2-2---2-2--2-2-
b-----------3----------------3--------------3---3----3-3---3-3--3-3-
g-------0-----0----------------0--------0-----0-0----2-2---2-2--2-2-
d---2-2-----------------------------2-2---------2----0-0-0---0--0-0-
a-3-------------2----0------------3-------------3-------------------
e----------------------0--------------------------------------------

gtr. 2

e-------------------------------------------------------------------
b---------0---------------------------------------------------------
g-------0-----2-0----2h4-------0--0---------------------------------
d---2/5-------------------------------------------------------------
a-3-----------------------------------------------------------------
e-------------------------------------------------------------------

Bridge: x4

gtr. 1

e-0----0--0-0--0----0-0-0-0----0-0-0--0-----0-0-0--0---0-0--
b-0----0--0-0--0----0-0-0-0----0-0-0--0-----0-0-0--0---0-0--
g-0----0--2-2--2----2-2-2-2----2-2-2--2-----2-2-2--2---2-2--
d-2----2--3-3--3----3-3-3-3----3-3-3--3-----3-3-3--3---3-3--
a-2----2--2-2--2----2-2-2-2----2-2-2--2-----2-2-2--2---2-2--
e-0----0----------------------------------------------------

gtr. 2

e-----------------------------------------------------------
b-----------------------------------------------------------
g-9~~~~~~~~~~~~~~~~~~~~~~~~~~~~-----------------------------
d-----------------------------------------------------------
a-----------------------------------------------------------
e-----------------------------------------------------------

Interlude: Fig. 1 

Outro: Fig. 1 & 1a.


thatís all

*from the Disturbed tab book*

trevor jones
timmy91199@yahoo.ca
Comments