Disturbed - Darkness Chords & Tabs

 

Darkness Chords & Tabs

Disturbed Chords & Tabs

Version: 1 Type: Bass Tab 0 ratings
1 star 2 stars 3 stars 4 stars 5 stars
comments

Darkness Bass Tab

   
Tuning-Bb,Db,Ab,Db,Gb

Intro  (0:00)
Gb----------------------|
Db----------------------|  x2
Ab----------------------|
Db-2-----5-----2-----5--|
Bb----------------------|

Gb----------------------|
Db----------------------|  x2
Ab----------------------|
Db-2-----5-----2-----5--|
Bb----------------------|

Chorus
Gb----------------------|
Db----------------------|  x3
Ab-3-----2--0-----------|
Db------------2---------|
Bb----------------------|

Gb----------------------|
Db----------0-0---------|
Ab-3-----3--------------|
Db----------------------|
Bb----------------------|

Gb----------------------|
Db----------------------|  x2
Ab----------------------|
Db-2-----5-----2-----5--|
Bb----------------------|

Verse  (1:18)
Carry me away...
Gb----------------------|
Db----------------------|  x2
Ab----------------------|
Db-2-----5-----2-----5--|
Bb----------------------|

Chorus
Gb----------------------|
Db----------------------|  x3
Ab-3-----2--0-----------|
Db------------2---------|
Bb----------------------|
[ Tab from: http://www.guitartabs.cc/tabs/d/disturbed/darkness_btab.html ]
Gb----------------------|
Db----------0-0---------|
Ab-3-----3--------------|
Db----------------------|
Bb----------------------|

Bridge
Gb----------------------|
Db----------------------|  x4
Ab----------------------|
Db-2--------------------|
Bb-------0--------------|

Gb----------------------|
Db----------------------|  x2
Ab----------------------|
Db-2-----5-----2-----5--|
Bb----------------------|

Gb----------------------|
Db----------------------|
Ab----------------------|
Db-2-----5-----2-----5--|
Bb----------------------|

Chorus
Gb----------------------|
Db----------------------| x3
Ab-3-----2--0-----------|
Db------------2---------|
Bb----------------------|

Gb----------------------|
Db----------0-0---------|
Ab-3-----3--------------|
Db----------------------|
Bb----------------------|

Outro
Gb----------------------|
Db----------------------|  x2
Ab----------------------|
Db-2-----5-----2-----5--|
Bb----------------------|

Gb----------------------|
Db----------------------|
Ab----------------------|
Db-2~~------------------|
Bb----------------------|

Thanks, please rate it after you learn it.
Comments