Disturbed - Conflict Chords & Tabs

 

Conflict Chords & Tabs

Disturbed Chords & Tabs

Version: 1 Type: Tab 0 ratings
1 star 2 stars 3 stars 4 stars 5 stars
comments

Conflict Tab

-------------------------------------------------------------------------------
			     CONFLICT - DISTURBED
-------------------------------------------------------------------------------

By: JAMES LOW whatisaturnip@yahoo.co.uk    TUNE DOWN 1/2 STEP

e|---------------------------------------------------------------------------|
B|---------------------------------------------------------------------------|
G|---------------------------------------------------------------------------|
D|---------------------------------------------------------------------------|
A|------------------------------------4--4-----------------------------------|
E|3--2--0--3--2--0--3--2--0--3--2--0--2--2-----------------------------------|
                             |-------------------P.M.-------------------|
e|---------------------------------------------------------------------------|
B|---------------------------------------------------------------------------|
G|---------------------------------------------------------------------------|
D|4----x--x--5------4--------------------------------------------------------|
A|3----x--x--3------2----2---------------------------------------------------|
E|-----------------------0---0--0--0--0--0--0--0--0--0--0--0--0--0--0--0-----|
                             |-------------------P.M.-------------------|
e|---------------------------------------------------------------------------|
B|---------------------------------------------------------------------------|
G|---------------------------------------------------------------------------|
D|4----4--4--5------4--------------------------------------------------------|
A|3----3--3--3------2----2---------------------------------------------------|
E|-----------------------0---0--0--0--0--0--0--0--0--0--0--0--0--0--0--0-----|
[ Tab from: http://www.guitartabs.cc/tabs/d/disturbed/conflict_tab.html ]
e|---------------------------------------------------------------------------|
B|---------------------------------------------------------------------------|
G|---------------------------------------------------------------------------|
D|5---7---7---7---7-7----7---7--7--7-----------------------------------------|
A|3---5---5---5---5-5----6---6--6--6-----------------------------------------|
E|---------------------------------------11-\--------------------------------|
  |---P.M.--|      |---P.M.--|      |---P.M.--|      |---P.M.--|
e|---------------------------------------------------------------------------|
B|---------------------------------------------------------------------------|
G|---------------------------------------------------------------------------|
D|------------2----------------3----------------4----------------5-----------|
A|------------2----------------3----------------4----------------5-----------|
E|0--0--0--0--0----0--0--0--0--1----0--0--0--0--2----0--0--0--0--3-----------|
  |---------------------P.M.---------------------|
e|---------------------------------------------------------------------------|
B|---------------------------------------------------------------------------|
G|---------------------------------------------------------------------------|
D|---------------------------------------------------------------------------|
A|------------------------------------------------5-5-5-5-5-5-5-5------------|
E|0-0-0-0-0-0-0-0-1-1-1-1-1-1-1-1-2-2-2-2-2-2-2-2-3-3-3-3-3-3-3-3------------|

e|---------------------------------------------------------------------------|
B|-----------------------------------------0-------------0-------14fdbk------|
G|-----------------------------------------0-------------0-------------------|
D|---------------------------------------------------------------------------|
A|2------4/5--5--5/6--6--4--5--5--6------------------------------------------|
E|0------2/3--3--3/4--4--2--3--3--4--0---------------------------------------|

e|------14fdbk----14b------18fdbk-------14fdbk------14fdbk------14fdbk-------|
B|15-------------------------------------------------------------------------|
G|---------------------------------------------------------------------------|
D|---------------------------------------------------------------------------|
A|---------------------------------------------------------------------------|
E|---------------------------------------------------------------------------|

===============================================================================
Comments