Disturbed - Believe Chords & Tabs

 

Believe Chords & Tabs

Disturbed Chords & Tabs

Version: 2 Type: Tab 0 ratings
1 star 2 stars 3 stars 4 stars 5 stars
comments

Believe Tab

   
Believe 


NOTE: The notation "7b8r7" means to bend the 7 to the 8,
then release the bend back to the 7

TUNING (low to high): Db Ab Db Gb Bb Eb


INTRO (2x)    Part 1                                 Part 2
eb---------------------------------------  -----------------------------------------
bb---------------------------------------  -----------------------------------------
gb-------------------10-10-10------------  -------------------10-10-10--------------
db--8-8-8--10-10-10--10-10-10------------  --8-8-8--10-10-10--10-10-10--0-0-0-0-0-0-
ab--5-5-5--5--5--5---8--8--8---13-13-12--  --5-5-5--5--5--5---8--8--8---0-0-0-0-0-0-
db--5-5-5--5--5--5---8--8--8---0--0--0---  --5-5-5--5--5--5---8--8--8---0-0-0-0-0-0-
                                                                        - - -pm- - -
VERSE    Part 1 (2x)
eb--------------------------------------------------------------------------
bb--------------------------------------------------------------------------
gb--------------------------------------------------------------------------
db--5-5-5--5-5-5--10-10-10-------------5-5-5--5-5-5--10-10-10--0-0-0-0-0-0--
ab--5-5-5--5-5-5--8--8--8---13-13-12---5-5-5--5-5-5--8--8--8---0-0-0-0-0-0--
db--5-5-5--5-5-5--8--8--8---0--0--0----5-5-5--5-5-5--8--8--8---0-0-0-0-0-0--
    - - - - -pm- - - - - -             - - - - - - - -pm- - - - - - - - - -
  Part 2 (2x)
eb--------------------------------------------------------------------------
bb--------------------------------------------------------------------------
gb--------------------------------------------------------------------------
db--8-8-8--5-5-5--10-10-10-------------8-8-8--5-5-5--10-10-10--0-0-0-0-0-0--
ab--5-5-5--5-5-5--8--8--8---13-13-12---5-5-5--5-5-5--8--8--8---0-0-0-0-0-0--
db--5-5-5--5-5-5--8--8--8---0--0--0----5-5-5--5-5-5--8--8--8---0-0-0-0-0-0--
           - - - -pm- - -                     - - - - - -pm- - - - - - - - -
CHORUS
eb---------------------------------------------------------
bb---------------------------------------------------------
gb---------------------------------------------------------
db--8-8-8--12-8-8--3-3-3--5-8-7--5-8-5-8-5-5--5-8-5-8-5-5--
ab--8-8-8--8--8-8--3-3-3--5-5-5--5-5-5-5-6-6--5-5-5-5-6-6--
db--8-8-8--8--8-8--3-3-3--5-5-5--5-5-5-5-5-5--5-5-5-5-5-5--

eb---------------------------------------------------------------
bb---------------------------------------------------------------
gb---------------------------------------------------------------
db--8-8-8--12-8-8--3-3-3--5-8-7---5-5-5--10-10-10--1-1-1--3-3-3--
ab--8-8-8--8--8-8--3-3-3--5-5-5---5-5-5--10-10-10--1-1-1--3-3-3--
db--8-8-8--8--8-8--3-3-3--5-5-5---5-5-5--10-10-10--1-1-1--3-3-3--

eb------------------------------------------------------------
bb------------------------------------------------------------
gb------------------------------------------------------------
db--5-5-5--10-10-10--1-1-1--3-3-3---5-5-5-5-5-5--1-1-1-8-8-8--
ab--5-5-5--10-10-10--1-1-1--3-3-3---5-5-5-5-5-5--1-1-1-8-8-8--
db--5-5-5--10-10-10--1-1-1--3-3-3---5-5-5-5-5-5--1-1-1-8-8-8--

eb------------------------------------------------------------
bb------------------------------------------------------------
gb------------------------------------------------------------
db--5-5-5--10-10-10--1-1-1--3-3-3---0-0-0-0-0-0--0-0-0-8-8-7--
ab--5-5-5--10-10-10--1-1-1--3-3-3---0-0-0-0-0-0--0-0-0-0-0-0--
db--5-5-5--10-10-10--1-1-1--3-3-3---0-0-0-0-0-0--0-0-0-0-0-0--
                                    - - -pm- - -








[ Tab from: http://www.guitartabs.cc/tabs/d/disturbed/believe_tab_ver_2.html ]
BRIDGE                           Part 1 (12x)
eb--------------------------  ------------------------------------
bb--------------------------  ------------------------------------
gb--------------------------  ------------------------------------
db--0-----------------------  --0-0-0---------0--------0----------
ab--0-(let ring 4 measures)-  --0-0-0-8-7-----0-7-5----0-------8--
db--0-----------------------  --0-0-0-----10--0-----8--0-7b8r7----

  Part 2 (over Bridge Part 1) (2x) [after 4x Part 1]
eb------------------------------------------------------
bb--6-5-6-5-6-5--6-5-6-5-6-5--6-5-6-5-6-5--6-5-6-5-6-5--
gb------------------------------------------------------
db------------------------------------------------------
ab------------------------------------------------------
db------------------------------------------------------

BRIDGE OUTRO
eb----------------------
bb----------------------
gb----------------------
db-----10---------------
ab--10----12--13-13-12--
db----------------------

ALTERED CHORUS
eb---------------------------------------------------------
bb---------------------------------------------------------
gb---------------------------------------------------------
db--8-8-8--12-8-8--3-3-3--5-8-7--5-8-5-8-5-5--5-8-5-8-5-5--
ab--8-8-8--8--8-8--3-3-3--5-5-5--5-5-5-5-6-6--5-5-5-5-6-6--
db--8-8-8--8--8-8--3-3-3--5-5-5--5-5-5-5-5-5--5-5-5-5-5-5--

eb---------------------------------------------------------------
bb---------------------------------------------------------------
gb---------------------------------------------------------------
db--8-8-8--12-8-8--3-3-3--5-8-7---5-5-5--10-10-10--1-1-1--3-3-3--
ab--8-8-8--8--8-8--3-3-3--5-5-5---5-5-5--10-10-10--1-1-1--3-3-3--
db--8-8-8--8--8-8--3-3-3--5-5-5---5-5-5--10-10-10--1-1-1--3-3-3--

eb-----------------------------------------------------------------
bb-----------------------------------------------------------------
gb-----------------------------------------------------------------
db--5-5-5--10-10-10--1-1-1--3-3-3---5-5-5--10-10-10--1-1-1--3-3-3--
ab--5-5-5--10-10-10--1-1-1--3-3-3---5-5-5--10-10-10--1-1-1--3-3-3--
db--5-5-5--10-10-10--1-1-1--3-3-3---5-5-5--10-10-10--1-1-1--3-3-3--

eb-----------------------------------------------------------------
bb-----------------------------------------------------------------
gb-----------------------------------------------------------------
db--5-5-5--10-10-10--1-1-1--3-3-3---5-5-5--10-10-10--1-1-1--3-3-3--
ab--5-5-5--10-10-10--1-1-1--3-3-3---5-5-5--10-10-10--1-1-1--3-3-3--
db--5-5-5--10-10-10--1-1-1--3-3-3---5-5-5--10-10-10--1-1-1--3-3-3--

eb-----------------------------------------------------------------
bb-----------------------------------------------------------------
gb-----------------------------------------------------------------
db--5-5-5--10-10-10--1-1-1--3-3-3---5-5-5--10-10-10--1-1-1--3-3-3--
ab--5-5-5--10-10-10--1-1-1--3-3-3---5-5-5--10-10-10--1-1-1--3-3-3--
db--5-5-5--10-10-10--1-1-1--3-3-3---5-5-5--10-10-10--1-1-1--3-3-3--

eb------------------------------------------------------------
bb------------------------------------------------------------
gb------------------------------------------------------------
db--5-5-5--10-10-10--1-1-1--3-3-3---0-0-0-0-0-0--0-0-0-8-8-7--
ab--5-5-5--10-10-10--1-1-1--3-3-3---0-0-0-0-0-0--0-0-0-0-0-0--
db--5-5-5--10-10-10--1-1-1--3-3-3---0-0-0-0-0-0--0-0-0-0-0-0--
                                    - - -pm- - -




END
eb-----
bb-----
gb-----
db--5--
ab--5--
db--5--

ORDER:
Intro
Verse
Chorus
Intro
Verse
Chorus
Bridge
Bridge Outro
Altered Chorus
End
Comments