Disturbed - Believe Chords & Tabs

 

Believe Chords & Tabs

Disturbed Chords & Tabs

Version: 1 Type: Tab 2 ratings
1 star 2 stars 3 stars 4 stars 5 stars
comments

Believe Tab

   
Song: Believe
Artist: Disturbed
Album: Believe
Guitarist: Dan Donegan

Tuning: Drop D, 1/2 Step Down (Db,Ab,Db,Gb,Bb,Eb)

INTRO:
|-----------------------------------------|
|-----------------------------------------|
|-----------5-5--5--5---------------------|
|-7-7--7--7-5-5--5--5-10-10--10--10-------|
|-5-5--5--5-5-5--5--5--8--8---8---8-8-8-7-|
|-5-5--5--5-5-5--5--5--8--8---8---8-8-8-7-|

|-----------------------------------------------|
|-----------------------------------------------|
|-----------5-5--5--5---------------------------|
|-7-7--7--7-5-5--5--5-10-10--10--10-------------|
|-5-5--5--5-5-5--5--5--8--8---8---8-0-0-0-0-0-0-|
|-5-5--5--5-5-5--5--5--8--8---8---8-0-0-0-0-0-0-|
pm                                  . . . . . .

VERSE:
|-------------------------------------|
|-------------------------------------|
|-------------------------------------|
|-------------------------------------|
|-------------------------------8-8-7-|
|-5-5--5--5-5-5--5--5-8-8--8--8-8-8-7-|
pm. .  .  . . .  .  . . .  .  .

|-------------------------------------------|
|-------------------------------------------|
|-------------------------------------------|
|-------------------------------------------|
|-------------------------------------------|
|-5-5--5--5-5-5--5--5-8-8--8--8-0-0-0-0-0-0-|
pm. .  .  . . .  .  . . .  .  . . . . . . .

VERSE B:
|-------------------------------------|
|-------------------------------------|
|-------------------------------------|
|-7-7--7------------------------------|
|-5-5--5------------------------8-8-7-|
|-5-5--5--5-5-5--5--5-8-8--8--8-8-8-7-|
pm        . . .  .  . . .  .  .

|-------------------------------------------|
|-------------------------------------------|
|-------------------------------------------|
|-7-7--7------------------------------------|
|-5-5--5------------------------------------|
|-5-5--5--5-5-5--5--5-8-8--8--8-0-0-0-0-0-0-|
pm        . . .  .  . . .  .  . . . . . . .

BRIDGE:
|--------------------------------------------------|
|--------3-----------------------------------------|
|-3--3-3---3---------------------------------------|
|-3--3-3-------------------------------------------|
|-1--1-1------3-3--6-3-6--5-8-5-8-0-0--5-8-5-8-0-0-|
|-------------3-3--6-3-6--5-8-5-8-0-0--5-8-5-8-0-0-|

|----------------------------------------|
|--------3-------------------------------|
|-3--3-3---3-----------------------------|
|-3--3-3---------------------5--8--------|
|-1--1-1------3-3--6-3-6--5--3--6--3-3-3-|
|-------------3-3--6-3-6--5--------3-3-3-|
[ Tab from: http://www.guitartabs.cc/tabs/d/disturbed/believe_tab.html ]
CHORUS: (gradually release palm mute)
|--------------------------------------------------------------|
|--------------------------------------------------------------|
|--------------------------------------------------------------|
|---------5--5-5--8--8-8-----------------5--5-5--8--8-8--------|
|-5--5-5--3--3-3--6--6-6--3-3-1--5--5-5--3--3-3--6--6-6--8-8-8-|
|-5--5-5------------------3-3-1--5--5-5------------------8-8-8-|

|--------------------------------------------------------|
|--------------------------------------------------------|
|--------------------------------------------------------|
|---------5--5-5--8--8-8---------------------------------|
|-5--5-5--3--3-3--6--6-6--3-3-1--6-6-6-6-6-6-6-6-6-6-6-6-|
|-5--5-5------------------3-3-1--6-6-6-6-6-6-6-6-6-6-6-6-|
pm                               . . . . . . . . . . . .

FILL:
|---|
|---|
|---|
|---|
|-0-|
|-0-|

INTERLUDE:
|-----------------------------------------------------------|
|-----------------------------------------------------------|
|------10\9-----9\7-----7\5---10------10\9-----9\7-----3--3-|
|-------X-X-----X-X-----X-X----X-------X-X-----X-X-----3--3-|
|-------8\7-----7\5-----5\3-0--8-------8\7-----7\5-----1--1-|
|-0--0------0-0-----0-0----------0--0------0-0-----0-0------|

INTERLUDE 2:
|------------------------------------------------------------------|
|------------------------------------------------------------------|
|--------10\9------9\7------7\5---10--------10\9------9\7------3-3-|
|---------X-X------X-X------X-X----X---------X-X------X-X------3-3-|
|---------8\7------7\5------5\3-0--8---------8\7------7\5------1-1-|
|-000000------0000-----0000----------000000------0000-----0000-----|
pm......      ....     ....          ......      ....     ....

INTERLUDE 2 BACKGROUND:
|---------------------------------|
|---------------------------------|
|-10p9-10p9-10p9---10p9-10p9-10p9-|
|---------------------------------|
|---------------------------------|
|---------------------------------|

CHORUS 2:
|--------------------------------------------------------|
|--------------------------------------------------------|
|--------------------------------------------------------|
|--------5------8--------------------5------8------------|
|-5------3-3333-6-6666-3-3-1--5------3-3333-6-6666-8-8-8-|
|-5-5555---------------3-3-1--5-5555---------------8-8-8-|
pm  ....   ....   ....          ....   ....   ....

|------------------------------------------------------------------|
|------------------------------------------------------------------|
|------------------------------------------------------------------|
|--------5------8-------------------------------------5------------|
|-5------3-3333-6-6666-3-3-1--6-6-6-6-6-6-6-6-6-6-6-6-5------------|
|-5-5555---------------3-3-1--6-6-6-6-6-6-6-6-6-6-6-6-5------------|
pm  ....   ....   ....        . . . . . . . . . . . .
                              |---gradual release----|
Comments