Disturbed - Awaken Chords & Tabs

 

Awaken Chords & Tabs

Disturbed Chords & Tabs

Version: 3 Type: Tab 0 ratings
1 star 2 stars 3 stars 4 stars 5 stars
comments

Awaken Tab

   
Awaken-Disturbed
Believe

Drop Db:
Db Ab Db Gb Bb Eb


Intro: x2

e-----------------------------------------------------------------
b-----------------------------------------------------------------
g-------------------------------------------------------------<5>-
d------/3-2---------------------------/3-2--------------------<5>-
a-3-2--------3-2---3-2-/6-5-5-5--3-2--------3-2---3-2-/6-5--5-----
d-3-2--------3-2---3-2-/6-5-5-5--3-2--------3-2---3-2-/6-5--5-----

e-----------------------------------------------------------------
b-----------------------------------------------------------------
g-----------------------------------------------------------------
d------/3-2---------------------------/3-2------------------------
a-3-2--------3-2---3-2-/6-5-5-5--3-2--------3-2---5-5--x---x---x--
d-3-2--------3-2---3-2-/6-5-5-5--3-2--------3-2---5-5--x---x---x--

Verse 1: (x2)

w/ flanger

e---------------0--------------------------------0----------------
b-----------------------------------------------------------------
g-9-------------------------------9-------------------------------
d-9---------------------------x-x-8---------------------------x-x-
a-7---------------------------x-x-7---------------------------x-x-
d-----------------------------------------------------------------

e-----------------------------------------------------------------
b---------------------------------------------------------------0-
g-12-----------12-------------------------------12----------------
d-11--------------------------x-x-14--------------------------x---
a-10--------------------------x-x-10--------------------------x---
d-----------------------------------------------------------------

e---------------0--------------------------------0----------------
b-----------------------------------------------------------------
g-9-------------------------------9-------------------------------
d-9---------------------------x-x-8---------------------------x-x-
a-7---------------------------x-x-7---------------------------x-x-
d-----------------------------------------------------------------

1st ending:
e-----------------------------------------------------------------
b-----------------------------------------------------------------
g-12-----------12-----------------12------------12----------------
d-11------------------------------11--------------------------x-x-
a-10------------------------------10--------------------------x-x-
d-----------------------------------------------------------------

2nd ending:

e-----------------------------------------------------------------
b-----------------------------------------------------------------
g-12-----------12-----------------12----12---12-12---12--12---12--
d-11------------------------------11----11---11-11---11--11---11--
a-10------------------------------10----10---10-10---10--10---10--
d-----------------------------------------------------------------

Chorus: x2

e-------------------------------------------------------------
b-------------------------------------------------------------
g-----------------4-4-4-----5-5-----------------4-4-4---------
d---------------------------5-5-------------------------------
a----/5-5-5-5-3--------------------/5-5-5-5-3-----------------
d-2-----------3---------5-5-----2-----------3---------5-5--0--

e--------------------------------------------------------------
b--------------------------------------------------------------
g-----------------4-4-4-----5-5--------------------------------
d---------------------------5-5--------------------------------
a----/5-5-5-5-3------------------------------------------------
d-2-----------3---------5-5-----2--0-0-0-0---0-0-0-0-0---0-0-0-

after choruses: x2

e-----------------------------------------------------------------
b-----------------------------------------------------------------
g-----------------------------------------------------------------
d-3\2---------3\2---------3-2-----3\2---------3\2---------3-2-----
a-3\2---x-x-x-3\2-x-x-x-0-3-2-----3\2---x-x-x-3\2-x-x-x-0-3-2-----
d-3\2---x-x-x-3\2-x-x-x-0-3-2-----3\2---x-x-x-3\2-x-x-x-0-3-2-----

e-----------------------------------------------------------------
b-----------------------------------------------------------------
g-----------------------------------------------------------------
d-3\2---------3\2---------3-2-----6\5-----------------------------
a-3\2---x-x-x-3\2-x-x-x-0-3-2-----6\5-------5-5----5----x-x---5---
d-3\2---x-x-x-3\2-x-x-x-0-3-2-----6\5-------5-5----5----x-x---5---

before 2nd verse:
[ Tab from: http://www.guitartabs.cc/tabs/d/disturbed/awaken_tab_ver_3.html ]
e-----------------------------------------------------------------
b-----------------------------------------------------------------
g-9---------------------------------------------------------------
d-9---------------------------9p7-8-------------------------------
a-7---------------------------7---7-------------------------------
d-----------------------------------------------------------------

e-----------------------------------------------------------------
b-----------------------------------------------------------------
g------------------------------12---------------------------------
d-11---------------------------11-14--------------------------x-x-
a-10---------------------------10-10--------------------------x-x-
d-----------------------------------------------------------------

2nd Verse: (play 1st verse with)

pm throughout
x4
e-----------------------------------------------------------------
b-----------------------------------------------------------------
g-----------------------------------------------------------------
d-----------------------------------------------------------------
a-3-2---------3-2---2--2---------3-2----------3-2---5-5---5---5---
d-3-2-----x---3-2---2--2-----0-0-3-2------x---3-2---5-5---5---5---

then,

e-----------------------------------------------------------------
b-----------------------------------------------------------------
g-----------------------------------------------------------------
d------3-2---------------------------3-2--------------------------
a-----------------------------------------------------------------
d-3-2-------3-2---3-2---6-5---5-3-2-------3-2---3-2---6-5--5--5---

e-----------------------------------------------------------------
b-----------------------------------------------------------------
g-----------------------------------------------------------------
d------3-2---------------------------3-2--------------------------
a----------------------------------------------------------5--5---
d-3-2-------3-2---3-2---6-5---0-3-2-------3-2---3-2---6-5--5--5---

Chorus
After Chorus

2nd Ending: let ring & fade

e-----------------------------------------------------------------
b-----------------------------------------------------------------
g-----------------------------------------------------------------
d-----------------------------------------------------------------
a-2---------------------------------------------------------------
d-2---------------------------------------------------------------

Bridge:

x2
e---------0---------0-----------------------0---------0-----------
b--------------------------------0------------------------------0-
g-----------------------------------------------------------------
d-----------------------------------------------------------------
a-----------------------------------3-----------------------------
d-2---------------------------------------------------------------

e-------------------0-------------------------------------0-------
b---------1----------------------1----------3----------------3----
g---------2---------------------------------4-------------------4-
d---------2---------------------------------4---------------------
a-0---------------------------------2-----------------------------
d-----------------------------------------------------------------

then,

e-------------------0---------------------------------------------
b---------1--------------------1----------------------------------
g---------2-----------------------4-4-4-4-4-4-4-4-4-4-4-4-4-4-4-4-
d---------2-----------------------4-4-4-4-4-4-4-4-4-4-4-4-4-4-4-4-
a-0-------------------------------2-2-2-2-2-2-2-2-2-2-2-2-2-2-2-2-
d-----------------------------------------------------------------

Outro:

x3
e-----------------------------------------------------------------
b-----------------------------------------------------------------
g-----------------------------------------------------------------
d-3-2-x-x-x-x-3-2-x-x-x-x-3-2-x-x-3-2-x-x-x-x-3-2-x-x-x-x-3-2-x-x-
a-3-2-x-x-x-x-3-2-x-x-x-x-3-2-x-x-3-2-x-x-x-x-3-2-x-x-x-x-3-2-x-x-
d-3-2-x-x-x-x-3-2-x-x-x-x-3-2-x-x-3-2-x-x-x-x-3-2-x-x-x-x-3-2-x-x-

then

e-----------------------------------------------------------------
b-----------------------------------------------------------------
g-----------------------------------------------------------------
d-3-2-x-x-x-x-3-2-x-x-x-x-3-2-------------------------------------
a-3-2-x-x-x-x-3-2-x-x-x-x-3-2-------------------------------------
d-3-2-x-x-x-x-3-2-x-x-x-x-3-2-------------------------------------


thatís all

*from the Distubed tab book*

trevor jones
timmy91199@yahoo.ca
Comments