Disturbed - Avarice Chords & Tabs

 

Avarice Chords & Tabs

Disturbed Chords & Tabs

Version: 4 Type: Tab 0 ratings
1 star 2 stars 3 stars 4 stars 5 stars
comments

Avarice Tab

   
this has got to be the fastest disturbed song. but none the less it rocks!

by: maximushyrule


D-------------------------------------------------|
A-------------------------------------------------|
F-------------------------------------------------|
C-------------------------------------------------|
G-5p22222223p222222223p222222225p222223p223p223p2-|
C-------------------------------------------------|

D-----------------------------------------------------------|
A-----------------------------------------------------------|
F-----------------------------------------------------------|
C-12p99999-10p999999-10p9999999-12p999999-10p99-10p99-10p99-|
G-12p99999-10p999999-10p9999999-12p999999-10p99-10p99-10p99-|
C-12p99999-10p999999-10p9999999-12p999999-10p99-10p99-10p99-|

Verse:

D------------------------------------|
A------------------------------------|
F------------------------------------|
C------------------------------------|
G-9-9-9--999--999-9-9-10p9-10p9-10p9-|
C-9-9-9--999--999-9-9-10p9-10p9-10p9-|
P.M....  ...  ... . . .. . .. . .. .

D---------------------------|
A---------------------------|
F---------------------------|
C-12-9-9--999--999--999-999-|
G-12-9-9--999--999--999-999-|
C-12-9-9--999--999--999-999-|

Chorus

as for the chorus, to get the weird scratchy effect on the c.d., move your finger 
the fret but don't make a harmonic. if you practice enough you'll get the weird sound


G---------------------------------------------------------------|
A---------------------------------------------------------------|
F---------------------------------------------------------------|
C-5-5-5-4-4-4-1-1-1-2-2-1-1-2-1--5-5-5-4-4-4-1-1-1-4-4-4-1xxxxxx|
G-5-5-5-4-4-4-1-1-1-2-2-1-1-2-1--5-5-5-4-4-4-1-1-1-4-4-4-1xxxxxx|
C-5-5-5-4-4-4-1-1-1-2-2-1-1-2-1--5-5-5-4-4-4-1-1-1-4-4-4-1xxxxxx|

then the vers and chorus play again


then the solo:
[ Tab from: http://www.guitartabs.cc/tabs/d/disturbed/avarice_tab_ver_4.html ]
D--------------------------------------------------------------------------|
A----------13-14-13----------13-14-13----------13-14-13----------13-14-13--|
F-14-13-14----------14-13-14----------14-13-14----------14-13-14-----------|
C--------------------------------------------------------------------------|
G--------------------------------------------------------------------------|
C--------------------------------------------------------------------------|

D--/14--12-----------------------------------------------|
A----------14-13-12b---11~12~----------------------------|
F----------------------------11~-9-----------------------|
C----------------------------------9b--8--9-9b--8--------|
G---------------------------------------------------9~~--|
C--------------------------------------------------------|

D-------------------------------------12-----12-14~~--|
A--------10-------12-------10------12----14-----------|
F--10-11----10-11----10-11----10-11-------------------|
C-----------------------------------------------------|
G-----------------------------------------------------|
C-----------------------------------------------------|

you can hear this littl part after the solo when the bass kicks in
it's probably done with chords but this is the best i could get


D-------------------------------------------|
A-------------------------------------------|
F-7-----7-----7----9-7--7-----7-----7---8987|
C-7-----7-----7----9-7--7-----7-----7---8987|
G-------------------------------------------|
G-------------------------------------------|


then finally the chorus

D------------------------------------------------------------------|
A------------------------------------------------------------------|
F------------------------------------------------------------------|
C-5-5-5-4-4-4-1-1-1-2-2-2-1-1-2-2--5-5-5-4-4-4-7-7-7-9-9-9--9xxxxxx|
G-5-5-5-4-4-4-1-1-1-2-2-2-1-1-2-2--5-5-5-4-4-4-7-7-7-9-9-9--9xxxxxx|
C-5-5-5-4-4-4-1-1-1-2-2-2-1-1-2-2--5-5-5-4-4-4-7-7-7-9-9-9--9xxxxxx|
Comments