Distillers - Young Crazed Peeling Chords & Tabs

 

Young Crazed Peeling Chords & Tabs

Distillers Chords & Tabs

Version: 1 Type: Tab 0 ratings
1 star 2 stars 3 stars 4 stars 5 stars
comments

Young Crazed Peeling Tab

                                THE YOUNG CRAZED PEELING
				 ARTIST: THE DISTILLERS
				   TABBED BY: GORDON
				ALL MY OWN WORK, OCT. 8 2002
				     MY FIRST TAB
gordonwarr@comcast.net- email w. corrections
INTRO/VERSE
e |-------------------------------------------------------------------------------|
B |-------------------------------------------------------------------------------|
G |---------------------xx-5-xx-5-xx-5-xx-5------5--------------------------------|
D |-xx-3-xx-3-xx-3-xx-3-xx-5-xx-5-xx-5-xx-5--X4--5--9X really fast----------------|
A |-xx-3-xx-3-xx-3-xx-3-xx-3-xx-3-xx-3-xx-3------3--------------------------------|
E |-xx-5-xx-5-xx-1-xx-1--------------------------------/15b16-15b16---------------|
   repeat intro/verse X3

   thers a part in the verse where she does a lil hammer slide thing(its may not be
   right but its cool):
e |-------------------------------------------------------------------------------|
B |-------------------------------------------------------------------------------|
G |---------------------xx-5-xx-5-xx-5----------4-4-3h4p3/2-----------X2----------|
D |-xx-3-xx-3-xx-3-xx-3-xx-5-xx-5-xx-5-X-1-1/2------------------------------------|
A |-xx-3-xx-3-xx-3-xx-3-xx-3-xx-3-xx-3--------------------------------------------|
E |-xx-5-xx-5-xx-1-xx-1-----------------------------------------------------------|

CHORUS
e |-------------------------------------------------------------------------------|
B |-------------------------------------------------------------------------------|
G |---5-----------5-----9-8-7-----------------------------------------------------|
D |-3-5-5--5-4--3-5-5---x-x-x--------------X2-------------------------------------|
A |-3-3-5--5-4--3-3-5---7-6-5-----------------------------------------------------|
E |-1---3--3-2--1---3-------------------------------------------------------------|
[ Tab from: http://www.guitartabs.cc/tabs/d/distillers/young_crazed_peeling_tab.html ]
VERSE
e |-------------------------------------------------------------------------------|
B |----------------------------------------------------------------X2-------------|
G |---------------------xx-5-xx-5-xx-5----------4-4-3h4p3/2-----------------------|
D |-xx-3-xx-3-xx-3-xx-3-xx-5-xx-5-xx-5-X-1-1/2------------------------last time---|
A |-xx-3-xx-3-xx-3-xx-3-xx-3-xx-3-xx-3---------------------------------/14b16-----|
E |-xx-5-xx-5-xx-1-xx-1-----------------------------------------------------------|

CHORUS

BRIDGE(tough) muting must be done inline w. the CD
e |-3-3-3-3-----------------------------------------------------------------------|
B |-3-3-3-3----//12--12--11-9-----------------------------------------------------|
G |-4-4-4-4--------11--11-------X4------------------------------------------------|
D |-5-5-5-5-----------------------------------------------------------------------|
A |-------------------------------------------------------------------------------|
E |-------------------------------------------------------------------------------|

VERSE
e |-------------------------------------------------------------------------------|
B |----------------------------------------------------------------X2-------------|
G |---------------------xx-5-xx-5-xx-5----------4b5-4-3---------------------------|
D |-xx-3-xx-3-xx-3-xx-3-xx-5-xx-5-xx-5-X-1-1/2------------------------------------|
A |-xx-3-xx-3-xx-3-xx-3-xx-3-xx-3-xx-3--------------------------------------------|
E |-xx-5-xx-5-xx-1-xx-1-----------------------------------------------------------|

CHORUS
e |-------------------------------------------------------------------------------|
B |---------------------------------------------------------------last time-------|
G |---5-----------5-----9-8-7----------------------------------------5------------|
D |-3-5-5--5-4--3-5-5---x-x-x--------------X2---------------------3--5--5---------|
A |-3-3-5--5-4--3-3-5---7-6-5-------------------------------------3--3--5---------|
E |-1---3--3-2--1---3---------------------------------------------1-----3---------|

VERSE...ARE U READY TO BE LIBERATED....
END  ON
G|--5//--|
D|--5//--|
A|--3//--|
Comments