Distillers - Young Crazed Peeling Chords & Tabs

 

Young Crazed Peeling Chords & Tabs

Distillers Chords & Tabs

Version: 1 Type: Bass Tab 0 ratings
1 star 2 stars 3 stars 4 stars 5 stars
comments

Young Crazed Peeling Bass Tab

Intro

--10\12---10----------------------------------|
---------------10---------10101010101010------|
----------------------------------------------|
----------------------------------------------|


 You play verse 2 1 time and verse 1 1 time
Verse1
x2
----------------------------------------------|
----------------------------------------------|
---------3>-----------------------------------|
-3>--1>---------------------------------------|


Verse-2
-----------------------------------------------|
----------------55---33------------------------|
-----------3>-------------55----33-------------|
-3>---1>---------------------------------------|

[ Tab from: http://www.guitartabs.cc/tabs/d/distillers/young_crazed_peeling_btab.html ]
Chorus
----------------------------------------------|
---------5>--5--4--3>-------------------------|
-----3>---------------3>----------------------|
-1>----------------------3>--3--2-------------|


Bridge -- no lyrics
----------------------------------------------|
---5>----345----------------------------------|
---------------3>-----------------------------|
----------------------------------------------|


theres a part in one of the last verses like this

----------------------------------------------|
----------------------------------------------|
----------------3~~---------------------------|
--3~~----1~~----------------------------------| then u play chorus
Comments