Distillers - The Young Crazed Peeling Chords & Tabs

 

The Young Crazed Peeling Chords & Tabs

Distillers Chords & Tabs

Version: 2 Type: Tab 0 ratings
1 star 2 stars 3 stars 4 stars 5 stars
comments

The Young Crazed Peeling Tab

   
THE DISTILLERS:YOUNG CRAZED PEELING
ALBUM:SING SING DEATH HOUSE
BY::sexpistols78

Intro 2X Then pick-slide
e-------------------------------------------------
b-------------------------------------------------
g--------------------------55-5--55-5--55-5--55-5-
d---55-5--55-5--33-3--33-3-55-5--55-5--55-5--55-5-
a---55-5--55-5--33-3--33-3-33-3--33-3--33-3--33-3-
E---33-3--33-3--11-1--11-1------------------------
PM  __    __    __    __   __    __    __    __

Then this 2x  *****=(Not played first time)
e----------------------------------------------------
b----------------------------------------------------
g--------------------------55-5--55-5--55555-5-------
d---55-5--55-5--33-3--33-3-55-5--55-5--55555-5-------
a---55-5--55-5--33-3--33-3-33-3--33-3--33333-3-*****-   /=slide
E---33-3--33-3--11-1--11-1---------------------5/15v-   v=vibrato
PM  __    __    __    __   __    __ 
[ Tab from: http://www.guitartabs.cc/tabs/d/distillers/the_young_crazed_peeling_tab_ver_2.html ]
Verse X????
e-------------------------------------------------
b-------------------------------------------------
g--------------------------55-5--55-5--55-5--55-5-
d---55-5--55-5--33-3--33-3-55-5--55-5--55-5--55-5-
a---55-5--55-5--33-3--33-3-33-3--33-3--33-3--33-3-
E---33-3--33-3--11-1--11-1------------------------
PM  __    __    __    __   __    __    __    __



Chorus 4X  F# Not played last time                    
e--------------------------------
b--------------------------------
g---------5-55555----------------
d-3-33333-5-55555-5555555555-5-4-
a-3-33333-3-33333-5555555555-5-4-
E-1-11111---------3333333333-3-2-

Second slide part comes a little after fist
slide part

e-----------------------------------------
b-----------------------------------------
g--------------------------55555555-------
d---55-5--55-5--33-3--33-3-55555555-------then pick-slide
a---55-5--55-5--33-3--33-3-33333333-3/15--then to chorus
E---33-3--33-3--11-1--11-1----------------
PM  __    __    __    __ 

LIttle picking part that you hear every once
in a while in the background.

e----------
b----^^^---
g-5b-555-3-  b=Full Bend ^=bend
d----------
a----------
E----------

SOLO X???????

e-33-3--33-3--33-3--33-3--33-3--13-13b-13-
b-33-3--33-3--33-3--33-3--33-3--13-13b-13-
g-----------------------------------------
d-----------------------------------------
a-----------------------------------------
E-----------------------------------------
PM__    __    __    __    __
Comments