Distillers - The Young Crazed Peeling Chords & Tabs

 

The Young Crazed Peeling Chords & Tabs

Distillers Chords & Tabs

Version: 1 Type: Bass Tab 0 ratings
1 star 2 stars 3 stars 4 stars 5 stars
comments

The Young Crazed Peeling Bass Tab

This is such an awesome song & it's so easy!  =)  

Tuning: standard!

The lyrics are in brackets just to help u where u are. It's pretty straight
forward so I didn't put how many times you repeat everything. yadda, yadda here it is...

Intro  ~start @ 0:06~   NOt suRe aBout thiS paRt, buT it woRks!
G---------------|
D---------------|
A-------3-------|
E-3--1-----3333-|

Verse  (Well the birds have been...)
G------------------------------------|
D------------------------------------|
A--------------------3-3-3-3-3-3-3-3-|
E--3-3-3-3--1-1-1-1------------------|

Repeat until...
[ Tab from: http://www.guitartabs.cc/tabs/d/distillers/the_young_crazed_peeling_btab.html ]
Chorus  (It hit me..)
G------------------------------|
D------------------------------|
A----------3-3-3-3-------------|
E-1-1-1-1-----------3-3-3-3--2-|

Repeat until nest verse (my one heart..)
(Played the same as the 1st)  

Then Chorus again.

Bridge (no lyrics!)
G---------------------------------|
D-5-5-5-5-5-5-5-5-5-5-5-5-5--4----|
A-------------------------------3-|
E---------------------------------|

Verse (I speak of the truth..)

Chorus (It hit me...)

Verse again  (Are u ready..)  PLaY unTil thE enD


And you're done!*! Any questions, comments or if you're just yappy...feel
free to drop me a line...im_such_a_kinky_babe@hotmail.com.   =)
Comments