Distillers - The Hunger Chords & Tabs

 

The Hunger Chords & Tabs

Distillers Chords & Tabs

Version: 1 Type: Tab 0 ratings
1 star 2 stars 3 stars 4 stars 5 stars
comments

The Hunger Tab

   
-------------------------------------------------------------------------------
			     The Hunger - The Distillers
-------------------------------------------------------------------------------
Tabbed by: Tiffany
Email: psycho_skater411@hotmail.com

Tuning: Standard
	
INTRO/VERSE (acoustic)

e|-5--3--1--2----------------------------------------------------------------|
B|-5--5--1--4----------------------------------------------------------------|
G|-5--5--2--4----------------------------------------------------------------|
D|-7--5--3--4----------------------------------------------------------------|
A|-7--3--3--2----------------------------------------------------------------|
E|-5-----1-------------------------------------------------------------------|

CHORUS (with distortion)

e|-----------------------------|
B|-----------------------------|
G|-----------------------------|
D|-5--5--5--2-2--3--3--3-------| x4
A|-5--5--5--2-2--3--3--3-------|
E|-3--3--3--0-0--1--1--1-------|
[ Tab from: http://www.guitartabs.cc/tabs/d/distillers/the_hunger_tab.html ]
LEAD GUITAR (over verse)
e|--------------------------------------------------|
B|--------------------------------------------------|
G|--------------------------------------------------|
D|--------------------------------------------------| x2
A|-8--10/11--10--8- 10--6- 6\4/8--8\7~-8/10--10-----|
E|--------------------------------------------------|

e|--------------------------------------------------|
B|--------------------------------------------------|
G|--------------------------------------------------|
D|--------------------------------------------------|
A|-8--10/11--10--8- 10--10/11--11/13--13b--13p11\10-|
E|--------------------------------------------------|

e|--------------------------------------------------|
B|--------------------------------------------------|
G|--------------------------------------------------|
D|--------------------------------------------------|
A|-8--10/11--10--8- 10--6- 6\4/8--8\7~--------------|
E|--------------------------------------------------|


| b  bend 1/2 step
| /  slide up
| \  slide down
| h  hammer-on
| p  pull-off
| ~  vibrato
| +  harmonic
| x  Mute note
========================================================================
Comments