Distillers - Open Sky Chords & Tabs

 

Open Sky Chords & Tabs

Distillers Chords & Tabs

Version: 1 Type: Tab 0 ratings
1 star 2 stars 3 stars 4 stars 5 stars
comments

Open Sky Tab

   e|----------------------------------------------------------------|
     B|----------------------------------------------------------------|
     G|----------------------------------------------------------------|
     D|----------------------------------------------------------------|
     A|---3---------3-------------------3---------3--------------------|
     E|--------1---------1----2----1---------1---------1----2----1-----|
[ Tab from: http://www.guitartabs.cc/tabs/d/distillers/open_sky_tab.html ]
          Chorus:
     e|----------------------------------------------------------------|
     B|----------------------------------------------------------------|
     G|---5---------5--------------------------------------------------|
     D|---5----3----5----3----5----3-----------------------------------|
     A|---3----3----3----3----5----3-----------------------------------|
     E|--------1---------1----3----1-----------------------------------|

          Verse:
     e|----------------------------------------------------------------|
     B|----------------------------------------------------------------|
     G|--------7---------5---------------------------------------------|
     D|---5----7----5----5---------------------------------------------|
     A|---5----5----5----3---------------------------------------------|
     E|---3---------3--------------------------------------------------|
Comments