Distillers - I Am A Revenant Chords & Tabs

 

I Am A Revenant Chords & Tabs

Distillers Chords & Tabs

Version: 1 Type: Bass Tab 0 ratings
1 star 2 stars 3 stars 4 stars 5 stars
comments

I Am A Revenant Bass Tab

Band - Distillers
Song - I Am A Revenant
Album - Sing Sing Death House

Intro:
|------0-4-0-0-2-0-2-4-2-0-2-0---0---0-2-0--------0-4-0-0-2-0-22-4-2-2-0----|
|-2-2-4------------------------4---4-------4-2-2-4-----------------------4-2|
|---------------------------------------------------------------------------|
|---------------------------------------------------------------------------|

Verse 1:
|----------X8----------|
|----------------------|
|-------33333-----55555|
|-00000------33333-----|
[ Tab from: http://www.guitartabs.cc/tabs/d/distillers/i_am_a_revenant_btab.html ]
Chorus 1:
|---------X4-------------|--------0-4-0-0-2-0-2-4-2-0-2-0---0---0-2-0--|
|------------------------|--2-2-4-------------------------4---4-------4|
|11111-------33333-------|---------------------------------------------|
|------11111-------33333-|---------------------------------------------|

Verse 2:
|---------X4----------|---------------------X2------------------|
|---------------------|-----------------------------------------|
|11111-----33333------|-----33333-----55555-----33333-----55555-|
|-----11111-----33333-|00000-----33333-----00000-----33333------|

REPEAT VERSE 2 UNTIL MUTED BREAK DOWN 

PAUSE (GUITAR BREAKDOWN)

END:
|----------X6-----------|------------X4-----------|
|-----------------------|-------------------------|
|-------33333-----55555-|-11111-------33333-------|
|-00000------33333------|-------11111-------33333-|


          Enjoy!!!!!!!!!
Comments