Distillers - Gypsy Rose Lee Chords & Tabs

 

Gypsy Rose Lee Chords & Tabs

Distillers Chords & Tabs

Version: 2 Type: Tab 0 ratings
1 star 2 stars 3 stars 4 stars 5 stars
comments

Gypsy Rose Lee Tab

   
INTRO:
e|-2---(0)----0-------------------0--3-3--3------|
b|-3------3-------3-3-5----0-0--0-2----------2-3-|
g|-2------0-------0-0-4-----------2--------------|
d|-0------0-------0-0-4-----------2--------------|
a|--------2-------2-2-2-----------0--------------|
E|--------3-------3-3----------------------------|

e|-2---------------------------0----------------------------|
b|-3----3---3----3--3-3-5------2----------------------------|
g|-2----0---0----0--0-0-4--4---2----------------------------|
d|-0----0---0----0--0-0-4------2----/-----------------------|
a|------2---2----2--2-2-2------0----/pick scrape------------|
E|------3---3----3--3-3-------------/-----------------------|


  [Chorus] x2
gtr.1
1:-------------------------------------------------|
2:-7-----7-----3-----3-----9-----9-----5-----5-----|
3:-7(8x)-7(8x)-4-----4-----9-----9-----7-----6-----|
4:-7-----7-----5(8x)-5(8x)-9(8x)-9(8x)-7(8x)-7(8x)-|
5:-5-----5-----5-----5-----7-----7-----7-----7-----|
6:-------------3-----3-----------------5-----5-----|
gtr.2
1:---------------------------------------------------|
2:-----7---------3---------9---------5---------5-----|
3:-----7---------4---------9---------7---------6-----|
4:-7-7-7(4x)-----5(4x)-9-9-9(4x)-----7(2x)-----7(2x)-|
5:-5-5-5-----5-5-5-----7-7-7-----7-7-7-----7-7-7-----|
6:-----------3-3-3---------------5-5-5-----5-5-5-----|

[ Tab from: http://www.guitartabs.cc/tabs/d/distillers/gypsy_rose_lee_tab_ver_2.html ]
   [Verse] x4
e|---------------------------------------------------|
b|-----7---------3---------9---------5---------5-----|
g|-----7---------4---------9---------7---------6-----|
d|-7-7-7(4x)-----5(4x)-9-9-9(4x)-----7(2x)-----7(2x)-|
a|-5-5-5-----5-5-5-----7-7-7-----7-7-7-----7-7-7-----|
E|-----------3-3-3---------------5-5-5-----5-5-5-----|

   [Interlude] x4
e|--------------------------------------------------------|
b|-5-5-5--5-5-5--7-7-7--7-7-7--3-3-3--3-3-3--5-5-5--5-5-5-|
g|-6-6-6--6-6-6--7-7-7--7-7-7--4-4-4--4-4-4--6-6-6--6-6-6-|
d|-7-7-7--7-7-7--7-7-7--7-7-7--5-5-5--5-5-5--7-7-7--7-7-7-|
a|-7-7-7--7-7-7--5-5-5--5-5-5--5-5-5--5-5-5--7-7-7--7-7-7-|
E|-5-5-5--5-5-5----------------3-3-3--3-3-3--5-5-5--5-5-5-|

[Verse] x2
[Chorus] x2


   [Solo]  [Accompaniment of the chorus: 2x]

   D   G   E     A4  A    D                G   E       A4 A
1:-----3----------------|------------------7----------------|
2:-3--------------------|-----8-7----7-----8---10--9--------|
3:---------4-----7---6--|-7-------7-----7--7-----------7--6-|
4:----------------------|-----------------------------------|
5:----------------------|-----------------------------------|
6:----------------------|-----------------------------------|

Chorus: 4x

Outro:

e|--2-----------------------------------------------0--|
b|--3(after this stop the dist.)-3--------------5---2--|
g|--2----------------------------0--------------4---2--|
d|--0----------------------------0--------------4---2--|
a|-------------------------------2--2---2---2-2-2---0--|
E|-------------------------------3--3---3---3-3--------|

e|-2----3^2--0---0-------0---0---------|
b|-3---------3---3---5---2-------2-----|
g|-2---------0---0---4---2-----------2-|
d|-0---------0---0---4---2-------------|
a|-----------2---2---2---0-------------|
E|-----------3---3---------------------|
Comments